>
 >
Live Love Die

Live Love Die Guitar Tabs

In Fear And Faith - Live Love Die chords, tabs, tablatures, lyrics

Guitar lessons | Add/correct | Request | Top 50 tabs Artists:  A B C D E F G H I J K L M N O P Q R S T U V W X Y Z 0-9

Live Love Die Guitar Tabs – In Fear And Faith

CD, Sheet music, Poster

Do you like Live Love Die? Share with your friends now
Bass TabsTabs

LIVE LOVE DIE
As recorded by In Fear and Faith
(From the 2007 Album VOYAGE)

	

Words and Music by In Fear and Faith

Gtr I (D A D G B E) - 'Guitar 1'
Gtr II (D A D G B E) - 'Guitar 2'
Gtr III (D A D G B E) - 'Piano'
Gtr IV (D A D G B E) - 'Clean Guitar 1'
Gtr V (D A D G B E) - 'Clean Guitar 2'

 Intro
  Q=175
 5/8      4/4
  Gtr I
           PM|    PM   PM  PM    PM  PM  PM  PM-
  H    E   E E  E E  E E E E   E E E E E E E E
|--------|-------------------|-----------------|
|--------|-------------------|-----------------|
|--------|-----10---10---9---|-9---7---7---9---|
|--------|-0-0----0----0---0-|---0---0---0---0-|
|--------|-------------------|-----------------|
|--------|-------------------|-----------------|
|
| Gtr II
| H    E   E E  E E  E E E E   E E E E E E E E
|--------|-------------------|-----------------|
|--------|-------------------|-----------------|
|--------|-------------------|-----------------|
|--------|-------------------|-----------------|
|--------|-0-0--0-0--0-0-0-0-|-0-0-0-0-0-0-0-0-|
|--------|-0-0--0-0--0-0-0-0-|-0-0-0-0-0-0-0-0-|


 ---|    PM   PM  PM    PM  PM  PM  PM
  E E  E E  E E E E   E E E E E E E E
|-------------------|-----------------|
|-------------------|-----------------|
|-----10---10---9---|-9---7---7---9---|
|-0-0----0----0---0-|---0---0---0---0-|
|-------------------|-----------------|
|-------------------|-----------------|
|
| E E  E E  E E E E   E E E E E E E E
|-------------------|-----------------|
|-------------------|-----------------|
|-------------------|-----------------|
|-------------------|-----------------|
|-0-0--0-0--0-0-0-0-|-0-0-0-0-0-0-0-0-|
|-0-0--0-0--0-0-0-0-|-0-0-0-0-0-0-0-0-|


  PM|    PM   PM  PM    PM   PM   PM  PM-
  E E  E E  E E E E   E E  E E  E E E E
|-------------------|-------------------|
|-------------------|-------------------|
|-----10---10---9---|-9---12---12---9---|
|-8-8----8----8---8-|---8----8----8---7-|
|-------------------|-------------------|
|-------------------|-------------------|
|
| E E  E E  E E E E   E E  E E  E E E E
|-------------------|-------------------|
|-------------------|-------------------|
|-------------------|-------------------|
|-------------------|-------------------|
|-8-8--8-8--8-8-8-8-|-8-8--8-8--8-8-8-8-|
|-8-8--8-8--8-8-8-8-|-8-8--8-8--8-8-8-8-|


 ---|    PM   PM  PM     PM   PM   PM   PM
  E E  E E  E E E E    E E  E E  E E  E E
|-------------------|---------------------|
|-------------------|---------------------|
|-----10---10---9---|-12---12---14---14---|
|-7-7----7----7---0-|----0----0----0----0-|
|-------------------|---------------------|
|-------------------|---------------------|
|
| E E  E E  E E E E    E E  E E  E E  E E
|-------------------|---------------------|
|-------------------|---------------------|
|-------------------|---------------------|
|-------------------|---------------------|
|-7-7--7-7--7-7-7-7-|--7-7--7-7--7-7--7-7-|
|-7-7--7-7--7-7-7-7-|--7-7--7-7--7-7--7-7-|


  PM|    PM   PM  PM    PM  PM  PM  PM----|    PM   PM  PM    PM  PM  PM  PM
  E E  E E  E E E E   E E E E E E E E   E E  E E  E E E E   E E E E E E E E
|-------------------|-----------------|-------------------|-----------------|
|-------------------|-----------------|-------------------|-----------------|
|-----10---10---9---|-9---7---7---9---|-----10---10---9---|-9---7---7---9---|
|-0-0----0----0---0-|---0---0---0---0-|-0-0----0----0---0-|---0---0---0---0-|
|-------------------|-----------------|-------------------|-----------------|
|-------------------|-----------------|-------------------|-----------------|
|
| E E  E E  E E E E   E E E E E E E E   E E  E E  E E E E   E E E E E E E E
|-------------------|-----------------|-------------------|-----------------|
|-------------------|-----------------|-------------------|-----------------|
|-------------------|-----------------|-------------------|-----------------|
|-------------------|-----------------|-------------------|-----------------|
|-0-0--0-0--0-0-0-0-|-0-0-0-0-0-0-0-0-|-0-0--0-0--0-0-0-0-|-0-0-0-0-0-0-0-0-|
|-0-0--0-0--0-0-0-0-|-0-0-0-0-0-0-0-0-|-0-0--0-0--0-0-0-0-|-0-0-0-0-0-0-0-0-|


  PM|    PM   PM  PM    PM   PM   PM  PM-
  E E  E E  E E E E   E E  E E  E E E E
|-------------------|-------------------|
|-------------------|-------------------|
|-----10---10---9---|-9---12---12---9---|
|-8-8----8----8---8-|---8----8----8---7-|
|-------------------|-------------------|
|-------------------|-------------------|
|
| E E  E E  E E E E   E E  E E  E E E E
|-------------------|-------------------|
|-------------------|-------------------|
|-------------------|-------------------|
|-------------------|-------------------|
|-8-8--8-8--8-8-8-8-|-8-8--8-8--8-8-8-8-|
|-8-8--8-8--8-8-8-8-|-8-8--8-8--8-8-8-8-|


 ---|    PM   PM  PM     PM   PM   PM   PM
  E E  E E  E E E E    E E  E E  E E  E E   Wx2
|-------------------|---------------------|--------||
|-------------------|---------------------|--------||
|-----10---10---9---|-12---12---14---14---|--------||
|-7-7----7----7---0-|----0----0----0----0-|--------||
|-------------------|---------------------|--------||
|-------------------|---------------------|--------||
|
| E E  E E  E E E E    E E  E E  E E  E E   Wx2
|-------------------|---------------------|--------||
|-------------------|---------------------|--------||
|-------------------|---------------------|--------||
|-------------------|---------------------|--------||
|-7-7--7-7--7-7-7-7-|--7-7--7-7--7-7--7-7-|--------||
|-7-7--7-7--7-7-7-7-|--7-7--7-7--7-7--7-7-|--------||


 Verse
  Gtrs I, II
  PM------------------------------------------------------------------------|
  E E. +T  E E. Q  S.   E Q  E E. E. E   E E. +T  E E. Q  S.   E Q  E E. E. E
|---------------------|----------------|---------------------|----------------|
|---------------------|----------------|---------------------|----------------|
|---------------------|----------------|---------------------|----------------|
|-0-0--(0)-0-0--------|---0--0-0--0--0-|-0-0--(0)-0-0--------|---0--0-0--0--0-|
|-0-0--(0)-0-0--------|---0--0-0--0--0-|-0-0--(0)-0-0--------|---0--0-0--0--0-|
|-0-0--(0)-0-0--------|---0--0-0--0--0-|-0-0--(0)-0-0--------|---0--0-0--0--0-|


  PM------------------------------------------------------------------------|
  E E. +T  E E. Q  S.   E Q  E E. E. E   E E. +T  E E. Q  S.   E Q  E E. E. E
|---------------------|----------------|---------------------|----------------|
|---------------------|----------------|---------------------|----------------|
|---------------------|----------------|---------------------|----------------|
|-0-0--(0)-0-0--------|---0--0-0--0--0-|-0-0--(0)-0-0--------|---0--0-0--0--0-|
|-0-0--(0)-0-0--------|---0--0-0--0--0-|-0-0--(0)-0-0--------|---0--0-0--0--0-|
|-0-0--(0)-0-0--------|---0--0-0--0--0-|-0-0--(0)-0-0--------|---0--0-0--0--0-|


   E  E   E  E   E  E   E  E     E  E   E  E   E  E   E  E
|-----------------------------|-----------------------------|
|-----------------------------|-----------------------------|
|-10-10--10-10--10-10--10-10--|-10-10--10-10--10-10--10-10--|
|--8--8---8--8---8--8---8--8--|--8--8---8--8---8--8---8--8--|
|--8--8---8--8---8--8---8--8--|--8--8---8--8---8--8---8--8--|
|--8--8---8--8---8--8---8--8--|--8--8---8--8---8--8---8--8--|
|
| Gtr III
|  E  E   E  E   E  E   E  E     E  E   E  E   E  E   E  E
|-12--------12---------13-----|----13---------10------------|
|----13---------13--------13--|--------13--------13-----13--|
|--------14--------14---------|-14--------14---------14-----|
|--8-(8)--8-(8)--8-(8)--8-(8)-|--8-(8)--8-(8)--8-(8)--8-(8)-|
|-----------------------------|-----------------------------|
|--8-(8)--8-(8)--8-(8)--8-(8)-|--8-(8)--8-(8)--8-(8)--8-(8)-|


   E   E    E    E    E    E   E   E     E  E  E  E  E   E    E    E
|-------------------------------------|-------------------------------|
|-------------------------------------|-------------------------------|
|-12--12---12---12---12---12--12--12--|-12-12-12-12-12--12---12---12--|
|-10--10---10---10---10---10--10--10--|-10-10-10-10-10--10---10---10--|
|-10--10---10---10---10---10--10--10--|-10-10-10-10-10--10---10---10--|
|-------------------------------------|-------------------------------|
|
|  E   E    E    E    E    E   E   E     E  E  E  E  E   E    E    E
|-12------------12------------13------|----13-------10----------------|
|-----13-------------13-----------13--|-------13--------13--------13--|
|----------14-------------14----------|-14-------14----------14-------|
|-------------------------------------|-------------------------------|
|-10-(10)-(10)-(10)-(10)-(10)-10-(10)-|-------------10-(10)-(10)-(10)-|
|-------------------------------------|-------------------------------|


   PM-------------------------------------------------------
   E E.   +T  E   E.     Q     S.   E Q   E E.    E.     E
|---------------------------------|------------------------|
|---------------------------------|------------------------|
|---------------------------------|------------------------|
|--0-0----(0)-0---0---------------|---0---0-0-----0------0-|
|--0-0----(0)-0---0---------------|---0---0-0-----0------0-|
|--0-0----(0)-0---0---------------|---0---0-0-----0------0-|
|
|  E E  E       E    E E   E E      E E E E E   E     E  E
|-12------------------------------|------------------10----|
|---------------------------------|---------6--10-------10-|
|----------------------7----------|-------7----------------|
|--------------------7-----7------|-----7------------------|
|-------5-------8------------8----|-5-8--------------------|
|--0-7----------------------------|------------------------|


 ------------------------------------------------------|
  E E.   +T  E   E.     Q     S.   E Q   E E.    E.     E
|--------------------------------|------------------------|
|--------------------------------|------------------------|
|--------------------------------|------------------------|
|-0-0----(0)-0---0---------------|---0---0-0-----0------0-|
|-0-0----(0)-0---0---------------|---0---0-0-----0------0-|
|-0-0----(0)-0---0---------------|---0---0-0-----0------0-|
|
| E E  E       E    E E   E E      E E E E E   E     E  E
|--------------------------------|------------------10-12-|
|--------------------------------|---------6--10----------|
|---------------------7----------|-------7----------------|
|-------------------7-----7------|-----7------------------|
|------5-------8------------8----|-5-8--------------------|
|-0-7----------------------------|------------------------|


   E  E   E  E   E  E   E  E     E  E   E  E   E  E   E  E
|-----------------------------|-----------------------------|
|-----------------------------|-----------------------------|
|-10-10--10-10--10-10--10-10--|-10-10--10-10--10-10--10-10--|
|--8--8---8--8---8--8---8--8--|--8--8---8--8---8--8---8--8--|
|--8--8---8--8---8--8---8--8--|--8--8---8--8---8--8---8--8--|
|--8--8---8--8---8--8---8--8--|--8--8---8--8---8--8---8--8--|
|
|  E  E   E  E   E  E   E  E     E  E   E  E   E  E   E  E
|-12--------12---------13-----|----13---------10------------|
|----13---------13--------13--|--------13--------13-----13--|
|--------14--------14---------|-14--------14---------14-----|
|--8-(8)--8-(8)--8-(8)--8-(8)-|--8-(8)--8-(8)--8-(8)--8-(8)-|
|-----------------------------|-----------------------------|
|--8-(8)--8-(8)--8-(8)--8-(8)-|--8-(8)--8-(8)--8-(8)--8-(8)-|


   E   E    E    E    E    E   E   E     E  E  E  E  E   E    E    E
|-------------------------------------|-------------------------------|
|-------------------------------------|-------------------------------|
|-12--12---12---12---12---12--12--12--|-12-12-12-12-12--12---12---12--|
|-10--10---10---10---10---10--10--10--|-10-10-10-10-10--10---10---10--|
|-10--10---10---10---10---10--10--10--|-10-10-10-10-10--10---10---10--|
|-------------------------------------|-------------------------------|
|
|  E   E    E    E    E    E   E   E     E  E  E  E  E   E    E    E
|-12------------12------------13------|----13-------10----------------|
|-----13-------------13-----------13--|-------13--------13--------13--|
|----------14-------------14----------|-14-------14----------14-------|
|-------------------------------------|-------------------------------|
|-10-(10)-(10)-(10)-(10)-(10)-10-(10)-|-------------10-(10)-(10)-(10)-|
|-------------------------------------|-------------------------------|


   PM-------------------------------------------------------
   E E.   +T  E   E.     Q     S.   E Q   E E.    E.     E
|---------------------------------|------------------------|
|---------------------------------|------------------------|
|---------------------------------|------------------------|
|--0-0----(0)-0---0---------------|---0---0-0-----0------0-|
|--0-0----(0)-0---0---------------|---0---0-0-----0------0-|
|--0-0----(0)-0---0---------------|---0---0-0-----0------0-|
|
|  E E  E       E    E E   E E      E E E E E   E     E  E
|-12------------------------------|------------------10----|
|---------------------------------|---------6--10-------10-|
|----------------------7----------|-------7----------------|
|--------------------7-----7------|-----7------------------|
|-------5-------8------------8----|-5-8--------------------|
|--0-7----------------------------|------------------------|


 ------------------------------------------------------|
  E E.   +T  E   E.     Q     S.   E Q   E E.    E.     E
|--------------------------------|------------------------|
|--------------------------------|------------------------|
|--------------------------------|------------------------|
|-0-0----(0)-0---0---------------|---0---0-0-----0------0-|
|-0-0----(0)-0---0---------------|---0---0-0-----0------0-|
|-0-0----(0)-0---0---------------|---0---0-0-----0------0-|
|
| E E  E       E    E E   E E      E E E E E   E     E  E
|--------------------------------|------------------10-12-|
|--------------------------------|---------6--10----------|
|---------------------7----------|-------7----------------|
|-------------------7-----7------|-----7------------------|
|------5-------8------------8----|-5-8--------------------|
|-0-7----------------------------|------------------------|


   E  E   E  E   E  E   E  E     E  E   E  E   E  E   E  E
|-----------------------------|-----------------------------|
|-----------------------------|-----------------------------|
|-10-10--10-10--10-10--10-10--|-10-10--10-10--10-10--10-10--|
|--8--8---8--8---8--8---8--8--|--8--8---8--8---8--8---8--8--|
|--8--8---8--8---8--8---8--8--|--8--8---8--8---8--8---8--8--|
|--8--8---8--8---8--8---8--8--|--8--8---8--8---8--8---8--8--|
|
|  E  E   E  E   E  E   E  E     E  E   E  E   E  E   E  E
|-12--------12---------13-----|----13---------10------------|
|----13---------13--------13--|--------13--------13-----13--|
|--------14--------14---------|-14--------14---------14-----|
|--8-(8)--8-(8)--8-(8)--8-(8)-|--8-(8)--8-(8)--8-(8)--8-(8)-|
|-----------------------------|-----------------------------|
|--8-(8)--8-(8)--8-(8)--8-(8)-|--8-(8)--8-(8)--8-(8)--8-(8)-|


   E   E    E    E    E    E   E   E     E  E  E  E  E   E    E    E
|-------------------------------------|-------------------------------||
|-------------------------------------|-------------------------------||
|-12--12---12---12---12---12--12--12--|-12-12-12-12-12--12---12---12--||
|-10--10---10---10---10---10--10--10--|-10-10-10-10-10--10---10---10--||
|-10--10---10---10---10---10--10--10--|-10-10-10-10-10--10---10---10--||
|-------------------------------------|-------------------------------||
|
|  E   E    E    E    E    E   E   E     E  E  E  E  E   E    E    E
|-12------------12------------13------|----13-------10----------------||
|-----13-------------13-----------13--|-------13--------13--------13--||
|----------14-------------14----------|-14-------14----------14-------||
|-------------------------------------|-------------------------------||
|-10-(10)-(10)-(10)-(10)-(10)-10-(10)-|-------------10-(10)-(10)-(10)-||
|-------------------------------------|-------------------------------||


 Bridge
   >
   W           +W           +W           +W
|------------|------------|------------|------------|
|------------|------------|------------|------------|
|------------|------------|------------|------------|
|------------|------------|------------|------------|
|--0---------|-(0)--------|-(0)--------|-(0)--------|
|--0---------|-(0)--------|-(0)--------|-(0)--------|
|
|  H    H       W            W            W
|-12---------|------------|------------|------------|
|-17---------|------------|------------|------------|
|-21---------|------------|------------|------------|
|------------|------------|------------|------------|
|------------|------------|------------|------------|
|------------|------------|------------|------------|


   <
  +W           +W           +W           +W
|------------|------------|------------|--------||
|------------|------------|------------|--------||
|------------|------------|------------|--------||
|------------|------------|------------|--------||
|-(0)--------|-(0)--------|-(0)--------|-(0)----||
|-(0)--------|-(0)--------|-(0)--------|-(0)----||
|
|  W            W            W            W
|------------|------------|------------|--------||
|------------|------------|------------|--------||
|------------|------------|------------|--------||
|------------|------------|------------|--------||
|------------|------------|------------|--------||
|------------|------------|------------|--------||


 Pre-Chorus
   E  E  E  E  E  E  E  E    E  E  E  E  E  E  E  E
|-------------------------|-------------------------|
|-------10----10----11----|-13----11----10----11----|
|-10-10----10----10----10-|----10----10----10----10-|
|-------------------------|-------------------------|
|-------------------------|-------------------------|
|-------------------------|-------------------------|
|
| Gtr II
|  E  E  E  E  E  E  E  E    E  E  E  E  E  E  E  E
|-------------------------|-------------------------|
|-------------------------|-------------------------|
|-------------------------|-------------------------|
|--------8-----------8----|--------8-----------8----|
|--8--8--8--8--8--8--8--8-|--8--8--8--8--8--8--8--8-|
|--8--8--8--8--8--8--8--8-|--8--8--8--8--8--8--8--8-|


                     PM|
   E  E  E  E  E  E  E  E    E  E  E  E  E  E  E  E
|-------------------------|-------------15----------|
|-------10----10----------|-------13-------13----13-|
|--9--9-----9-----9--9--9-|-12-12----12-------12----|
|-------------------------|-------------------------|
|-------------------------|-------------------------|
|-------------------------|-------------------------|
|
|  E  E  E  E  E  E  E  E    E  E  E  E  E  E  E  E
|-------------------------|-------------------------|
|-------------------------|-------------------------|
|-------------------------|-------------------------|
|-------10----------10----|-------10----------10----|
|-10-10-10-10-10-10-10-10-|-10-10-10-10-10-10-10-10-|
|-10-10-10-10-10-10-10-10-|-10-10-10-10-10-10-10-10-|


   E  E  E  E  E  E  E  E    E  E  E  E  E  E  E  E
|-------------------------|-------------------------|
|-------10----10----11----|-13----11----10----11----|
|-10-10----10----10----10-|----10----10----10----10-|
|-------------------------|-------------------------|
|-------------------------|-------------------------|
|-------------------------|-------------------------|
|
|  E  E  E  E  E  E  E  E    E  E  E  E  E  E  E  E
|-------------------------|-------------------------|
|-------------------------|-------------------------|
|-------------------------|-------------------------|
|--------0-----------0----|--------0-----------0----|
|--0--0--0--0--0--0--0--0-|--0--0--0--0--0--0--0--0-|
|--0--0--0--0--0--0--0--0-|--0--0--0--0--0--0--0--0-|


                PM|
  E E  E E  E E E E   E E E E  E E E E
|-------------------|---------10-------|
|-----10---10-------|-----8------8---8-|
|-9-9----9----9-9-9-|-7-7---7------7---|
|-------------------|------------------|
|-------------------|------------------|
|-------------------|------------------|
|
| E E  E E  E E E E   E E E E  E E E E
|-------------------|------------------|
|-------------------|------------------|
|-------------------|------------------|
|------0--------0---|-----0--------0---|
|-0-0--0-0--0-0-0-0-|-0-0-0-0--0-0-0-0-|
|-0-0--0-0--0-0-0-0-|-0-0-0-0--0-0-0-0-|


   E  E  E  E  E  E  E  E    E  E  E  E  E  E  E  E
|-------------------------|-------------------------|
|-------10----10----11----|-13----11----10----11----|
|-10-10----10----10----10-|----10----10----10----10-|
|-------------------------|-------------------------|
|-------------------------|-------------------------|
|-------------------------|-------------------------|
|
|  E  E  E  E  E  E  E  E    E  E  E  E  E  E  E  E
|-------------------------|-------------------------|
|-------------------------|-------------------------|
|-------------------------|-------------------------|
|--------8-----------8----|--------8-----------8----|
|--8--8--8--8--8--8--8--8-|--8--8--8--8--8--8--8--8-|
|--8--8--8--8--8--8--8--8-|--8--8--8--8--8--8--8--8-|


                     PM|
   E  E  E  E  E  E  E  E    E  E  E  E  E  E  E  E
|-------------------------|-------------15----------|
|-------10----10----------|-------13-------13----13-|
|--9--9-----9-----9--9--9-|-12-12----12-------12----|
|-------------------------|-------------------------|
|-------------------------|-------------------------|
|-------------------------|-------------------------|
|
|  E  E  E  E  E  E  E  E    E  E  E  E  E  E  E  E
|-------------------------|-------------------------|
|-------------------------|-------------------------|
|-------------------------|-------------------------|
|-------10----------10----|-------10----------10----|
|-10-10-10-10-10-10-10-10-|-10-10-10-10-10-10-10-10-|
|-10-10-10-10-10-10-10-10-|-10-10-10-10-10-10-10-10-|


   E  E  E  E  E  E  E  E    E  E  E  E  E  E  E  E
|-------------------------|-------------------------|
|-------10----10----11----|-13----11----10----11----|
|-10-10----10----10----10-|----10----10----10----10-|
|-------------------------|-------------------------|
|-------------------------|-------------------------|
|-------------------------|-------------------------|
|
|  E  E  E  E  E  E  E  E    E  E  E  E  E  E  E  E
|-------------------------|-------------------------|
|-------------------------|-------------------------|
|-------------------------|-------------------------|
|--------0-----------0----|--------0-----------0----|
|--0--0--0--0--0--0--0--0-|--0--0--0--0--0--0--0--0-|
|--0--0--0--0--0--0--0--0-|--0--0--0--0--0--0--0--0-|


                PM|
  E E  E E  E E E E   E E E E  E E E E
|-------------------|---------10-------||
|-----10---10-------|-----8------8---8-||
|-9-9----9----9-9-9-|-7-7---7------7---||
|-------------------|------------------||
|-------------------|------------------||
|-------------------|------------------||
|
| E E  E E  E E E E   E E E E  E E E E
|-------------------|------------------||
|-------------------|------------------||
|-------------------|------------------||
|------0--------0---|-----0--------0---||
|-0-0--0-0--0-0-0-0-|-0-0-0-0--0-0-0-0-||
|-0-0--0-0--0-0-0-0-|-0-0-0-0--0-0-0-0-||


 Chorus
   E  E  E  E  E  E  E  E    E  E  E  E  E  E  E  E
|-------------------------|-------------------------|
|-------------------------|-------------------------|
|-10-10-10-10-10-10-10-10-|-10-10-10-10-10-10-10-10-|
|--8--8--8--8--8--8--8--8-|--8--8--8--8--8--8--8--8-|
|--8--8--8--8--8--8--8--8-|--8--8--8--8--8--8--8--8-|
|-------------------------|-------------------------|
|
|  E  E  E  E  E  E  E  E    E  E  E  E  E  E  E  E
|-------------------------|-------------------------|
|-------------------------|-------------------------|
|-------------------------|-------------------------|
|-------------------------|-------------------------|
|--8--8--8--8--8--8--8--8-|--8--8--8--8--8--8--8--8-|
|--8--8--8--8--8--8--8--8-|--8--8--8--8--8--8--8--8-|


   E  E  E  E  E  E  E  E    E  E  E  E  E  E  E  E
|-------------------------|-------------------------|
|-------------------------|-------------------------|
|-12-12-12-12-12-12-12-12-|-12-12-12-12-12-12-12-12-|
|-10-10-10-10-10-10-10-10-|-10-10-10-10-10-10-10-10-|
|-10-10-10-10-10-10-10-10-|-10-10-10-10-10-10-10-10-|
|-------------------------|-------------------------|
|
|  E  E  E  E  E  E  E  E    E  E  E  E  E  E  E  E
|-------------------------|-------------------------|
|-------------------------|-------------------------|
|-------------------------|-------------------------|
|-------------------------|-------------------------|
|-10-10-10-10-10-10-10-10-|-10-10-10-10-10-10-10-10-|
|-10-10-10-10-10-10-10-10-|-10-10-10-10-10-10-10-10-|


   E  E  E  E  E  E  E  E    E  E  E  E  E  E  E  E
|-------------------------|-------------------------|
|-------------------------|-------------------------|
|-14-14-14-14-14-14-14-14-|-14-14-14-14-14-14-14-14-|
|-12-12-12-12-12-12-12-12-|-12-12-12-12-12-12-12-12-|
|-12-12-12-12-12-12-12-12-|-12-12-12-12-12-12-12-12-|
|-------------------------|-------------------------|
|
|  E  E  E  E  E  E  E  E    E  E  E  E  E  E  E  E
|-------------------------|-------------------------|
|-------------------------|-------------------------|
|-------------------------|-------------------------|
|-------------------------|-------------------------|
|--0--0--0--0--0--0--0--0-|--0--0--0--0--0--0--0--0-|
|--0--0--0--0--0--0--0--0-|--0--0--0--0--0--0--0--0-|


   E  E  E  E  E  E  E  E    E  E  E  E  E  E  E  E
|-------------------------|-------------------------|
|-------------------------|-------------------------|
|-14s15-15-15-15-15-15-15-|-14-14-14-14-14-14-14-14-|
|-------------------------|-------------------------|
|-12s13-13-13-13-13-13-13-|-12-12-12-12-12-12-12-12-|
|-------------------------|-------------------------|
|
|  E  E  E  E  E  E  E  E    E  E  E  E  E  E  E  E
|-------------------------|-------------------------|
|-------------------------|-------------------------|
|-------------------------|-------------------------|
|-------------------------|-------------------------|
|--0--0--0--0--0--0--0--0-|--3--3--3--3--3--3--3--3-|
|--0--0--0--0--0--0--0--0-|--3--3--3--3--3--3--3--3-|


   E  E  E  E  E  E  E  E    E  E  E  E  E  E  E  E
|-------------------------|-------------------------|
|-------------------------|-------------------------|
|-10-10-10-10-10-10-10-10-|-10-10-10-10-10-10-10-10-|
|--8--8--8--8--8--8--8--8-|--8--8--8--8--8--8--8--8-|
|--8--8--8--8--8--8--8--8-|--8--8--8--8--8--8--8--8-|
|-------------------------|-------------------------|
|
|  E  E  E  E  E  E  E  E    E  E  E  E  E  E  E  E
|-------------------------|-------------------------|
|-------------------------|-------------------------|
|-------------------------|-------------------------|
|-------------------------|-------------------------|
|--8--8--8--8--8--8--8--8-|--8--8--8--8--8--8--8--8-|
|--8--8--8--8--8--8--8--8-|--8--8--8--8--8--8--8--8-|


   E  E  E  E  E  E  E  E    E  E  E  E  E  E  E  E
|-------------------------|-------------------------|
|-------------------------|-------------------------|
|-12-12-12-12-12-12-12-12-|-12-12-12-12-12-12-12-12-|
|-10-10-10-10-10-10-10-10-|-10-10-10-10-10-10-10-10-|
|-10-10-10-10-10-10-10-10-|-10-10-10-10-10-10-10-10-|
|-------------------------|-------------------------|
|
|  E  E  E  E  E  E  E  E    E  E  E  E  E  E  E  E
|-------------------------|-------------------------|
|-------------------------|-------------------------|
|-------------------------|-------------------------|
|-------------------------|-------------------------|
|-10-10-10-10-10-10-10-10-|-10-10-10-10-10-10-10-10-|
|-10-10-10-10-10-10-10-10-|-10-10-10-10-10-10-10-10-|


   E  E  E  E  E  E  E  E    E  E  E  E  E  E  E  E
|-------------------------|-------------------------|
|-------------------------|-------------------------|
|-14-14-14-14-14-14-14-14-|-14-14-14-14-14-14-14-14-|
|-12-12-12-12-12-12-12-12-|-12-12-12-12-12-12-12-12-|
|-12-12-12-12-12-12-12-12-|-12-12-12-12-12-12-12-12-|
|-------------------------|-------------------------|
|
|  E  E  E  E  E  E  E  E    E  E  E  E  E  E  E  E
|-------------------------|-------------------------|
|-------------------------|-------------------------|
|-------------------------|-------------------------|
|-------------------------|-------------------------|
|--0--0--0--0--0--0--0--0-|--0--0--0--0--0--0--0--0-|
|--0--0--0--0--0--0--0--0-|--0--0--0--0--0--0--0--0-|


   E  E  E  E  E  E  E  E    E  E  E  E  E  E  E  E
|-------------------------|-------------------------||
|-------------------------|-------------------------||
|-19-19-19-19-19-19-19-19-|-19-19-19-19-19-19-19-19-||
|-------------------------|-------------------------||
|-17-17-17-17-17-17-17-17-|-17-17-17-17-17-17-17-17-||
|-------------------------|-------------------------||
|
|  E  E  E  E  E  E  E  E    E  E  E  E  E  E  E  E
|-------------------------|-------------------------||
|-------------------------|-------------------------||
|-------------------------|-------------------------||
|-------------------------|-------------------------||
|--0--0--0--0--0--0--0--0-|--0--0--0--0--0--0--0--0-||
|--0--0--0--0--0--0--0--0-|--0--0--0--0--0--0--0--0-||


 Verse
  S S E. +T  S S E. Q  S.   E Q  E E. E. E
|-------------------------|----------------|
|-------------------------|----------------|
|-------------------------|----------------|
|-0-0-0--(0)-0-0-0--------|---0--0-0--0--0-|
|-0-0-0--(0)-0-0-0--------|---0--0-0--0--0-|
|-0-0-0--(0)-0-0-0--------|---0--0-0--0--0-|


  S S E. +T  S S E. Q  S.   E Q  E E. E. E
|-------------------------|------------------|
|-------------------------|------------------|
|-------------------------|------------------|
|-0-0-0--(0)-0-0-0--------|---0--0-0--0--0---|
|-0-0-0--(0)-0-0-0--------|---0--0-0--0--0---|
|-0-0-0--(0)-0-0-0--------|---0--0-0--0--0---|


  Gtrs I, II
  PM-------------------------------------
  E E. +T  E E. Q  S.   E Q  E E. E. E
|---------------------|-----------------|
|---------------------|-----------------|
|---------------------|-----------------|
|-0-0--(0)-0-0--------|---0--0-0--0--0--|
|-0-0--(0)-0-0--------|---0--0-0--0--0--|
|-0-0--(0)-0-0--------|---0--0-0--0--0--|


 ------------------------------------|
  E E. +T  E E. Q  S.   E Q  E E. E. E
|---------------------|-----------------|
|---------------------|-----------------|
|---------------------|-----------------|
|-0-0--(0)-0-0--------|---0--0-0--0--0--|
|-0-0--(0)-0-0--------|---0--0-0--0--0--|
|-0-0--(0)-0-0--------|---0--0-0--0--0--|


   E  E   E  E   E  E   E  E     E  E   E  E   E  E   E  E
|-----------------------------|-----------------------------|
|-----------------------------|-----------------------------|
|-10-10--10-10--10-10--10-10--|-10-10--10-10--10-10--10-10--|
|--8--8---8--8---8--8---8--8--|--8--8---8--8---8--8---8--8--|
|--8--8---8--8---8--8---8--8--|--8--8---8--8---8--8---8--8--|
|--8--8---8--8---8--8---8--8--|--8--8---8--8---8--8---8--8--|
|
| Gtr III
|  E  E   E  E   E  E   E  E     E  E   E  E   E  E   E  E
|-12--------12---------13-----|----13---------10------------|
|----13---------13--------13--|--------13--------13-----13--|
|--------14--------14---------|-14--------14---------14-----|
|--8-(8)--8-(8)--8-(8)--8-(8)-|--8-(8)--8-(8)--8-(8)--8-(8)-|
|-----------------------------|-----------------------------|
|--8-(8)--8-(8)--8-(8)--8-(8)-|--8-(8)--8-(8)--8-(8)--8-(8)-|


   E   E    E    E    E    E   E   E     E  E  E  E  E   E    E    E
|-------------------------------------|-------------------------------|
|-------------------------------------|-------------------------------|
|-12--12---12---12---12---12--12--12--|-12-12-12-12-12--12---12---12--|
|-10--10---10---10---10---10--10--10--|-10-10-10-10-10--10---10---10--|
|-10--10---10---10---10---10--10--10--|-10-10-10-10-10--10---10---10--|
|-------------------------------------|-------------------------------|
|
|  E   E    E    E    E    E   E   E     E  E  E  E  E   E    E    E
|-12------------12------------13------|----13-------10----------------|
|-----13-------------13-----------13--|-------13--------13--------13--|
|----------14-------------14----------|-14-------14----------14-------|
|-------------------------------------|-------------------------------|
|-10-(10)-(10)-(10)-(10)-(10)-10-(10)-|-------------10-(10)-(10)-(10)-|
|-------------------------------------|-------------------------------|


   PM-------------------------------------------------------
   E E.   +T  E   E.     Q     S.   E Q   E E.    E.     E
|---------------------------------|------------------------|
|---------------------------------|------------------------|
|---------------------------------|------------------------|
|--0-0----(0)-0---0---------------|---0---0-0-----0------0-|
|--0-0----(0)-0---0---------------|---0---0-0-----0------0-|
|--0-0----(0)-0---0---------------|---0---0-0-----0------0-|
|
|  E E  E       E    E E   E E      E E E E E   E     E  E
|-12------------------------------|------------------10----|
|---------------------------------|---------6--10-------10-|
|----------------------7----------|-------7----------------|
|--------------------7-----7------|-----7------------------|
|-------5-------8------------8----|-5-8--------------------|
|--0-7----------------------------|------------------------|


 ------------------------------------------------------|
  E E.   +T  E   E.     Q     S.   E Q   E E.    E.     E
|--------------------------------|------------------------|
|--------------------------------|------------------------|
|--------------------------------|------------------------|
|-0-0----(0)-0---0---------------|---0---0-0-----0------0-|
|-0-0----(0)-0---0---------------|---0---0-0-----0------0-|
|-0-0----(0)-0---0---------------|---0---0-0-----0------0-|
|
| E E  E       E    E E   E E      E E E E E   E     E  E
|--------------------------------|------------------10-12-|
|--------------------------------|---------6--10----------|
|---------------------7----------|-------7----------------|
|-------------------7-----7------|-----7------------------|
|------5-------8------------8----|-5-8--------------------|
|-0-7----------------------------|------------------------|


   E  E   E  E   E  E   E  E     E  E   E  E   E  E   E  E
|-----------------------------|-----------------------------|
|-----------------------------|-----------------------------|
|-10-10--10-10--10-10--10-10--|-10-10--10-10--10-10--10-10--|
|--8--8---8--8---8--8---8--8--|--8--8---8--8---8--8---8--8--|
|--8--8---8--8---8--8---8--8--|--8--8---8--8---8--8---8--8--|
|--8--8---8--8---8--8---8--8--|--8--8---8--8---8--8---8--8--|
|
|  E  E   E  E   E  E   E  E     E  E   E  E   E  E   E  E
|-12--------12---------13-----|----13---------10------------|
|----13---------13--------13--|--------13--------13-----13--|
|--------14--------14---------|-14--------14---------14-----|
|--8-(8)--8-(8)--8-(8)--8-(8)-|--8-(8)--8-(8)--8-(8)--8-(8)-|
|-----------------------------|-----------------------------|
|--8-(8)--8-(8)--8-(8)--8-(8)-|--8-(8)--8-(8)--8-(8)--8-(8)-|


   E   E    E    E    E    E   E   E     E  E  E  E  E   E    E    E
|-------------------------------------|-------------------------------|
|-------------------------------------|-------------------------------|
|-12--12---12---12---12---12--12--12--|-12-12-12-12-12--12---12---12--|
|-10--10---10---10---10---10--10--10--|-10-10-10-10-10--10---10---10--|
|-10--10---10---10---10---10--10--10--|-10-10-10-10-10--10---10---10--|
|-------------------------------------|-------------------------------|
|
|  E   E    E    E    E    E   E   E     E  E  E  E  E   E    E    E
|-12------------12------------13------|----13-------10----------------|
|-----13-------------13-----------13--|-------13--------13--------13--|
|----------14-------------14----------|-14-------14----------14-------|
|-------------------------------------|-------------------------------|
|-10-(10)-(10)-(10)-(10)-(10)-10-(10)-|-------------10-(10)-(10)-(10)-|
|-------------------------------------|-------------------------------|


   PM-------------------------------------------------------
   E E.   +T  E   E.     Q     S.   E Q   E E.    E.     E
|---------------------------------|------------------------|
|---------------------------------|------------------------|
|---------------------------------|------------------------|
|--0-0----(0)-0---0---------------|---0---0-0-----0------0-|
|--0-0----(0)-0---0---------------|---0---0-0-----0------0-|
|--0-0----(0)-0---0---------------|---0---0-0-----0------0-|
|
|  E E  E       E    E E   E E      E E E E E   E     E  E
|-12------------------------------|------------------10----|
|---------------------------------|---------6--10-------10-|
|----------------------7----------|-------7----------------|
|--------------------7-----7------|-----7------------------|
|-------5-------8------------8----|-5-8--------------------|
|--0-7----------------------------|------------------------|


 ------------------------------------------------------|
  E E.   +T  E   E.     Q     S.   E Q   E E.    E.     E
|--------------------------------|------------------------|
|--------------------------------|------------------------|
|--------------------------------|------------------------|
|-0-0----(0)-0---0---------------|---0---0-0-----0------0-|
|-0-0----(0)-0---0---------------|---0---0-0-----0------0-|
|-0-0----(0)-0---0---------------|---0---0-0-----0------0-|
|
| E E  E       E    E E   E E      E E E E E   E     E  E
|--------------------------------|------------------10-12-|
|--------------------------------|---------6--10----------|
|---------------------7----------|-------7----------------|
|-------------------7-----7------|-----7------------------|
|------5-------8------------8----|-5-8--------------------|
|-0-7----------------------------|------------------------|


   E  E   E  E   E  E   E  E     E  E   E  E   E  E   E  E
|-----------------------------|-----------------------------|
|-----------------------------|-----------------------------|
|-10-10--10-10--10-10--10-10--|-10-10--10-10--10-10--10-10--|
|--8--8---8--8---8--8---8--8--|--8--8---8--8---8--8---8--8--|
|--8--8---8--8---8--8---8--8--|--8--8---8--8---8--8---8--8--|
|--8--8---8--8---8--8---8--8--|--8--8---8--8---8--8---8--8--|
|
|  E  E   E  E   E  E   E  E     E  E   E  E   E  E   E  E
|-12--------12---------13-----|----13---------10------------|
|----13---------13--------13--|--------13--------13-----13--|
|--------14--------14---------|-14--------14---------14-----|
|--8-(8)--8-(8)--8-(8)--8-(8)-|--8-(8)--8-(8)--8-(8)--8-(8)-|
|-----------------------------|-----------------------------|
|--8-(8)--8-(8)--8-(8)--8-(8)-|--8-(8)--8-(8)--8-(8)--8-(8)-|


   E   E    E    E    E    E   E   E     E  E  E  E  E   E    E    E
|-------------------------------------|-------------------------------|
|-------------------------------------|-------------------------------|
|-12--12---12---12---12---12--12--12--|-12-12-12-12-12--12---12---12--|
|-10--10---10---10---10---10--10--10--|-10-10-10-10-10--10---10---10--|
|-10--10---10---10---10---10--10--10--|-10-10-10-10-10--10---10---10--|
|-------------------------------------|-------------------------------|
|
|  E   E    E    E    E    E   E   E     E  E  E  E  E   E    E    E
|-12------------12------------13------|----13-------10----------------|
|-----13-------------13-----------13--|-------13--------13--------13--|
|----------14-------------14----------|-14-------14----------14-------|
|-------------------------------------|-------------------------------|
|-10-(10)-(10)-(10)-(10)-(10)-10-(10)-|-------------10-(10)-(10)-(10)-|
|-------------------------------------|-------------------------------|


                            Interlude
                            1/8   4/4
                             Gtr IV
   W           +W             E    +E   E E  E E  E   E  E
|-----------|-------------||-----|-------------------------|
|-----------|-------------||-----|-------------------------|
|-----------|-------------||-----|-----10-9-10-9-(9)----12-|
|--0--------|--(0)--------||--0--|-(0)------------x--10----|
|--0--------|--(0)--------||-----|-------------------------|
|--0--------|--(0)--------||-----|-------------------------|
|
| Gtr II
|  >
|  W           +W            +E    +W
|-----------|-------------||-----|-------------------------|
|-----------|-------------||-----|-------------------------|
|-----------|-------------||-----|-------------------------|
|--0--------|--(0)--------||-(0)-|-(0)---------------------|
|--0--------|--(0)--------||-(0)-|-(0)---------------------|
|--0--------|--(0)--------||-(0)-|-(0)---------------------|
|
| Gtr III
|  W           +W             W     W
|-12--------|-(12)--------||-----|-------------------------|
|-----------|-------------||-----|-------------------------|
|-----------|-------------||-----|-------------------------|
|-----------|-------------||-----|-------------------------|
|-----------|-------------||-----|-------------------------|
|-----------|-------------||-----|-------------------------|


   +E   E Q  E E  E E   +E   E E  E E  E   E  E
|---------------------|--------------------------|
|---------------------|--------------------------|
|-(12)-12-9----9-10---|-----10-9-10-9-(9)----12--|
|------------0------0-|-(0)------------x--10-----|
|---------------------|--------------------------|
|---------------------|--------------------------|
|
|  +W                   +W
|---------------------|--------------------------|
|---------------------|--------------------------|
|---------------------|--------------------------|
|--(0)----------------|-(0)----------------------|
|--(0)----------------|-(0)----------------------|
|--(0)----------------|-(0)----------------------|
|
|   W                    W
|---------------------|--------------------------|
|---------------------|--------------------------|
|---------------------|--------------------------|
|---------------------|--------------------------|
|---------------------|--------------------------|
|---------------------|--------------------------|


   +E   E Q  E E  E E   +E   E E  E E  E   E  E
|---------------------|-------------------------|
|---------------------|-------------------------|
|-(12)-12-9----9-10---|-----10-9-10-9-(9)----12-|
|------------0------0-|-(0)------------x--10----|
|---------------------|-------------------------|
|---------------------|-------------------------|


   +E   E Q  E E  E E   +E   E E  E E  E   E  E
|---------------------|-------------------------|
|---------------------|-------------------------|
|-(12)-12-9----9-10---|-----10-9-10-9-(9)----12-|
|------------0------0-|-(0)------------x--10----|
|---------------------|-------------------------|
|---------------------|-------------------------|


   +E   E Q  E  E E  E    +E   E E  E E  E   E  E
|----------------------|--------------------------|
|--------------10------|--------------------------|
|-(12)-12-9-------9-10-|-(10)-10-9-10-9-(9)----12-|
|------------0---------|-----------------x--10----|
|----------------------|--------------------------|
|----------------------|--------------------------|
|
| Gtr V
|   H.            E  E    +E   E E  E E  Q      E
|----------------------|--------------------------|
|----------------------|------10-8-10-8--------11-|
|----------------------|-----------------9--------|
|--------------------0-|--(0)---------------------|
|----------------------|--------------------------|
|----------------------|--------------------------|
|
| Gtr III
|   H.            E  E    +E   Q    Q    Q      E
|----------------------|--------------------------|
|----------------------|--------------------------|
|-------------------10-|-(10)-10---10---10-----12-|
|-------------------15-|-(15)-15---15---15-----17-|
|----------------------|--------------------------|
|----------------------|--------------------------|


   +E   E Q    E  E  E  E    +E   E E  E E  E   E  E
|-------------------------|--------------------------|
|----------------10-------|--------------------------|
|-(12)-12-9----------9-10-|-(10)-10-9-10-9-(9)----12-|
|--------------0----------|-----------------x--10----|
|-------------------------|--------------------------|
|-------------------------|--------------------------|
|
|  +E   E Q    E  E  E  E    +E   E E  E E  Q      E
|-------------------------|--------------------------|
|-(11)-11-8-------8-10----|------10-8-10-8--------11-|
|-------------------------|-----------------9--------|
|--------------0--------0-|--(0)---------------------|
|-------------------------|--------------------------|
|-------------------------|--------------------------|
|
|  +E   Q    Q    Q     E    +E   Q    Q    Q      E
|-------------------------|--------------------------|
|-------------------------|--------------------------|
|-(12)-12----9----9----10-|-(10)-10---10---10-----12-|
|-(17)-17---14---14----15-|-(15)-15---15---15-----17-|
|-------------------------|--------------------------|
|-------------------------|--------------------------|


   +E   E Q    E  E  E  E    +E   E E  E E  E   E  E
|-------------------------|--------------------------|
|-------------------------|--------------------------|
|-(12)-12-9-------9-10----|------10-9-10-9-(9)----12-|
|--------------0--------0-|--(0)------------x--10----|
|-------------------------|--------------------------|
|-------------------------|--------------------------|
|
|  +E   E Q    E  E  E  E    +E   E E  E E  Q      E
|-------------------------|--------------------------|
|-(11)-11-8-------8-10----|------10-8-10-8--------11-|
|-------------------------|-----------------9--------|
|--------------0--------0-|--(0)---------------------|
|-------------------------|--------------------------|
|-------------------------|--------------------------|
|
|  +E   Q    Q    Q     E    +E   Q    Q    Q      E
|-------------------------|--------------------------|
|-------------------------|--------------------------|
|-(12)-12----9----9----10-|-(10)-10---10---10-----12-|
|-(17)-17---14---14----15-|-(15)-15---15---15-----17-|
|-------------------------|--------------------------|
|-------------------------|--------------------------|


   +E   E Q    E  E  E  E    +E   E E  E E  E   E  E
|-------------------------|--------------------------|
|-------------------------|--------------------------|
|-(12)-12-9-------9-10----|------10-9-10-9-(9)----12-|
|--------------0--------0-|--(0)------------x--10----|
|-------------------------|--------------------------|
|-------------------------|--------------------------|
|
|  +E   E Q    E  E  E  E    +E   E E  E E  Q      E
|-------------------------|--------------------------|
|-(11)-11-8-------8-10----|------10-8-10-8--------11-|
|-------------------------|-----------------9--------|
|--------------0--------0-|--(0)---------------------|
|-------------------------|--------------------------|
|-------------------------|--------------------------|
|
|  +E   Q    Q    Q     E    +E   Q    Q    Q      E
|-------------------------|--------------------------|
|-------------------------|-----------------------11-|
|-(12)-12----9----9----10-|-(10)-10---10---10-----15-|
|-(17)-17---14---14----15-|-(15)-15---15---15--------|
|-------------------------|--------------------------|
|-------------------------|--------------------------|


   +E   E Q    E  E E  E    +E   E E  E E  E   E  E
|------------------------|--------------------------|
|----------------10------|--------------------------|
|-(12)-12-9---------9-10-|-(10)-10-9-10-9-(9)----12-|
|--------------0---------|-----------------x--10----|
|------------------------|--------------------------|
|------------------------|--------------------------|
|
|  +E   E Q    E  E E  E    +E   E E  E E  Q      E
|-----------------8------|--------------------------|
|-(11)-11-8---------8-10-|-(10)-10-8-10-8--------11-|
|------------------------|-----------------9--------|
|--------------0---------|--------------------------|
|------------------------|--------------------------|
|------------------------|--------------------------|
|
|  +E   Q    Q    Q    E    +E   Q    Q    Q      E
|------------------------|--------------------------|
|-(11)-11---10---10------|--------------------------|
|-(15)-15---14---14---10-|-(10)-10---10---10-----12-|
|---------------------15-|-(15)-15---15---15-----17-|
|------------------------|--------------------------|
|------------------------|--------------------------|


   +E   E Q    E  E  E  E    +E   E E  E E  E   E  E
|-------------------------|--------------------------|
|-------------------------|--------------------------|
|-(12)-12-9-------9-10----|------10-9-10-9-(9)----12-|
|--------------0--------0-|--(0)------------x--10----|
|-------------------------|--------------------------|
|-------------------------|--------------------------|
|
|  +E   E Q    E  E  E  E    +E   E E  E E  Q      E
|-------------------------|--------------------------|
|-(11)-11-8-------8-10----|------10-8-10-8--------11-|
|-------------------------|-----------------9--------|
|--------------0--------0-|--(0)---------------------|
|-------------------------|--------------------------|
|-------------------------|--------------------------|
|
|  +E   Q    Q    Q     E    +E   Q    Q    Q      E
|-------------------------|--------------------------|
|-------------------------|--------------------------|
|-(12)-12----9----9----10-|-(10)-10---10---10-----12-|
|-(17)-17---14---14----15-|-(15)-15---15---15-----17-|
|-------------------------|--------------------------|
|-------------------------|--------------------------|


   +E   E Q    E  E  E  E    +E   E E  E E  E   E  E
|-------------------------|--------------------------|
|-------------------------|--------------------------|
|-(12)-12-9-------9-10----|------10-9-10-9-(9)----12-|
|--------------0--------0-|--(0)------------x--10----|
|-------------------------|--------------------------|
|-------------------------|--------------------------|
|
|  +E   E Q    E  E  E  E    +E   E E  E E  Q      E
|-------------------------|--------------------------|
|-(11)-11-8-------8-10----|------10-8-10-8--------11-|
|-------------------------|-----------------9--------|
|--------------0--------0-|--(0)---------------------|
|-------------------------|--------------------------|
|-------------------------|--------------------------|
|
|  +E   Q    Q    Q     E    +E   Q    Q    Q      E
|-------------------------|--------------------------|
|-------------------------|--------------------------|
|-(12)-12----9----9----10-|-(10)-10---10---10-----12-|
|-(17)-17---14---14----15-|-(15)-15---15---15-----17-|
|-------------------------|--------------------------|
|-------------------------|--------------------------|


   +E   E Q    E  E  E  E    +E   E E  E E  E   E  E
|-------------------------|--------------------------|
|-------------------------|--------------------------|
|-(12)-12-9-------9-10----|------10-9-10-9-(9)----12-|
|--------------0--------0-|--(0)------------x--10----|
|-------------------------|--------------------------|
|-------------------------|--------------------------|
|
|  +E   E Q    E  E  E  E    +E   E E  E E  Q      E
|-------------------------|--------------------------|
|-(11)-11-8-------8-10----|------10-8-10-8--------11-|
|-------------------------|-----------------9--------|
|--------------0--------0-|--(0)---------------------|
|-------------------------|--------------------------|
|-------------------------|--------------------------|
|
|  +E   Q    Q    Q     E    +E   Q    Q    Q      E
|-------------------------|--------------------------|
|-------------------------|-----------------------11-|
|-(12)-12----9----9----10-|-(10)-10---10---10-----15-|
|-(17)-17---14---14----15-|-(15)-15---15---15--------|
|-------------------------|--------------------------|
|-------------------------|--------------------------|


   +E   E Q    E  E E  E    +E   E E  E E  E   E  E
|------------------------|--------------------------|
|----------------10------|--------------------------|
|-(12)-12-9---------9-10-|-(10)-10-9-10-9-(9)----12-|
|--------------0---------|-----------------x--10----|
|------------------------|--------------------------|
|------------------------|--------------------------|
|
|  +E   E Q    E  E E  E    +E   E E  E E  Q      E
|-----------------8------|--------------------------|
|-(11)-11-8---------8-10-|-(10)-10-8-10-8--------11-|
|------------------------|-----------------9--------|
|--------------0---------|--------------------------|
|------------------------|--------------------------|
|------------------------|--------------------------|
|
|  +E   Q    Q    Q    E    +E   Q    Q    Q      E
|------------------------|--------------------------|
|-(11)-11---10---10------|--------------------------|
|-(15)-15---14---14---10-|-(10)-10---10---10-----12-|
|---------------------15-|-(15)-15---15---15-----17-|
|------------------------|--------------------------|
|------------------------|--------------------------|


   +E   E Q    E  E  E  E    +E   E E  E E  E   E  E
|-------------------------|--------------------------|
|-------------------------|--------------------------|
|-(12)-12-9-------9-10----|------10-9-10-9-(9)----12-|
|--------------0--------0-|--(0)------------x--10----|
|-------------------------|--------------------------|
|-------------------------|--------------------------|
|
|  +E   E Q    E  E  E  E    +E   E E  E E  Q      E
|-------------------------|--------------------------|
|-(11)-11-8-------8-10----|------10-8-10-8--------11-|
|-------------------------|-----------------9--------|
|--------------0--------0-|--(0)---------------------|
|-------------------------|--------------------------|
|-------------------------|--------------------------|
|
|  +E   Q    Q    Q     E    +E   Q    Q    Q      E
|-------------------------|--------------------------|
|-------------------------|--------------------------|
|-(12)-12----9----9----10-|-(10)-10---10---10-----12-|
|-(17)-17---14---14----15-|-(15)-15---15---15-----17-|
|-------------------------|--------------------------|
|-------------------------|--------------------------|


   +E   E Q    E  E  E  E    +E   E E  E E  E   E  E    +E   E Q    E  E  E  E
|-------------------------|--------------------------|-------------------------|
|-------------------------|--------------------------|-------------------------|
|-(12)-12-9-------9-10----|------10-9-10-9-(9)----12-|-(12)-12-9-------9-10----|
|--------------0--------0-|--(0)------------x--10----|--------------0--------0-|
|-------------------------|--------------------------|-------------------------|
|-------------------------|--------------------------|-------------------------|
|
|  +E   E Q    E  E  E  E    +E   E E  E E  Q      E    +E   E Q    E  E  E  E
|-------------------------|--------------------------|-------------------------|
|-(11)-11-8-------8-10----|------10-8-10-8--------11-|-(11)-11-8-------8-10----|
|-------------------------|-----------------9--------|-------------------------|
|--------------0--------0-|--(0)---------------------|--------------0--------0-|
|-------------------------|--------------------------|-------------------------|
|-------------------------|--------------------------|-------------------------|
|
|  +E   Q    Q    Q     E    +E   Q    Q    Q      E    +E   Q    Q    Q     E
|-------------------------|--------------------------|-------------------------|
|-------------------------|--------------------------|-------------------------|
|-(12)-12----9----9----10-|-(10)-10---10---10-----12-|-(12)-12----9----9----10-|
|-(17)-17---14---14----15-|-(15)-15---15---15-----17-|-(17)-17---14---14----15-|
|-------------------------|--------------------------|-------------------------|
|-------------------------|--------------------------|-------------------------|


                                                 Gtr I
    E   E E  E E  E   E  E    +E   E Q    E  E E  E
|--------------------------|------------------------||
|--------------------------|----------------10------||
|------10-9-10-9-(9)----12-|-(12)-12-9---------9-10-||
|---0-------------x--10----|--------------0-------8-||
|--------------------------|----------------------8-||
|--------------------------|------------------------||
|
|                                                Gtr II
|   E   E E  E E  Q      E    +E   E Q    E  E E  E
|--------------------------|-----------------8------||
|------10-8-10-8--------11-|-(11)-11-8---------8----||
|-----------------9--------|------------------------||
|---0----------------------|--------------0-------8-||
|--------------------------|----------------------8-||
|--------------------------|----------------------8-||
|
|  +E   Q    Q    Q      E    +E   Q    Q    Q    E
|--------------------------|------------------------||
|-----------------------11-|-(11)-11---10---10------||
|-(10)-10---10---10-----15-|-(15)-15---14---14---10-||
|-(15)-15---15---15--------|---------------------15-||
|--------------------------|------------------------||
|--------------------------|------------------------||


 Chorus
    E   E  E  E  E  E  E  E     E   E  E  E  E  E  E  E
|---------------------------|---------------------------|
|---------------------------|---------------------------|
|--10--10-10-10-10-10-10-10-|--10--10-10-10-10-10-10-10-|
|---8---8--8--8--8--8--8--8-|---8---8--8--8--8--8--8--8-|
|---8---8--8--8--8--8--8--8-|---8---8--8--8--8--8--8--8-|
|---------------------------|---------------------------|
|
|   E   E  E  E  E  E  E  E     E   E  E  E  E  E  E  E
|---------------------------|---------------------------|
|---------------------------|---------------------------|
|---------------------------|---------------------------|
|---------------------------|---------------------------|
|---8---8--8--8--8--8--8--8-|---8---8--8--8--8--8--8-10-|
|---8---8--8--8--8--8--8--8-|---8---8--8--8--8--8--8-10-|
|
|  +E   Q     Q     Q     E    +E   Q     Q     Q     E
|---------------------------|---------------------------|
|---------------------------|---------------------------|
|-(10)-10----10----10----12-|-(12)-12-----9-----9----10-|
|-(15)-15----15----15----17-|-(17)-17----14----14----15-|
|---------------------------|---------------------------|
|---------------------------|---------------------------|


    E   E  E  E  E  E  E  E     E   E  E  E  E  E  E  E
|---------------------------|---------------------------|
|---------------------------|---------------------------|
|--12--12-12-12-12-12-12-12-|--12--12-12-12-12-12-12-12-|
|--10--10-10-10-10-10-10-10-|--10--10-10-10-10-10-10-10-|
|--10--10-10-10-10-10-10-10-|--10--10-10-10-10-10-10-10-|
|---------------------------|---------------------------|
|
|   E   E  E  E  E  E  E  E     E   E  E  E  E  E  E  E
|---------------------------|---------------------------|
|---------------------------|---------------------------|
|---------------------------|---------------------------|
|---------------------------|---------------------------|
|--10--10-10-10-10-10-10-10-|--10--10-10-10-10-10-10--0-|
|--10--10-10-10-10-10-10-10-|--10--10-10-10-10-10-10--0-|
|
|  +E   Q     Q     Q     E    +E   Q     Q     Q     E
|---------------------------|---------------------------|
|---------------------------|---------------------------|
|-(10)-10----10----10----12-|-(12)-12-----9-----9----10-|
|-(15)-15----15----15----17-|-(17)-17----14----14----15-|
|---------------------------|---------------------------|
|---------------------------|---------------------------|


    E   E  E  E  E  E  E  E     E   E  E  E  E  E  E  E
|---------------------------|---------------------------|
|---------------------------|---------------------------|
|--14--14-14-14-14-14-14-14-|--14--14-14-14-14-14-14-14s|
|--12--12-12-12-12-12-12-12-|--12--12-12-12-12-12-12----|
|--12--12-12-12-12-12-12-12-|--12--12-12-12-12-12-12-12s|
|---------------------------|---------------------------|
|
|   E   E  E  E  E  E  E  E     E   E  E  E  E  E  E  E
|---------------------------|---------------------------|
|---------------------------|---------------------------|
|---------------------------|---------------------------|
|---------------------------|---------------------------|
|---0---0--0--0--0--0--0--0-|---0---0--0--0--0--0--0--3-|
|---0---0--0--0--0--0--0--0-|---0---0--0--0--0--0--0--3-|
|
|  +E   Q     Q     Q     E    +E   Q     Q     Q     E
|---------------------------|---------------------------|
|---------------------------|---------------------------|
|-(10)-10----10----10----12-|-(12)--9-----9-----9----10-|
|-(15)-15----15----15----17-|-(17)-14----14----14----15-|
|---------------------------|---------------------------|
|---------------------------|---------------------------|


    E   E  E  E  E  E  E  E     E   E  E  E  E  E  E  E
|---------------------------|---------------------------|
|---------------------------|---------------------------|
|--15--15-15-15-15-15-15-14-|--14--14-14-14-14-14-14-10-|
|---------------------------|-------------------------8-|
|--13--13-13-13-13-13-13-12-|--12--12-12-12-12-12-12--8-|
|---------------------------|---------------------------|
|
|   E   E  E  E  E  E  E  E     E   E  E  E  E  E  E  E
|---------------------------|---------------------------|
|---------------------------|---------------------------|
|---------------------------|---------------------------|
|---------------------------|---------------------------|
|---3---3--3--3--3--3--3--8-|---8---8--8--8--8--8--8--8-|
|---3---3--3--3--3--3--3--8-|---8---8--8--8--8--8--8--8-|
|
|  +E   Q     Q     Q     E    +E   Q     Q     Q     E
|---------------------------|---------------------------|
|------------------------11-|-(11)-11----10----10-------|
|-(10)-10----10----10----15-|-(15)-15----14----14----10-|
|-(15)-15----15----15-------|------------------------15-|
|---------------------------|---------------------------|
|---------------------------|---------------------------|


    E   E  E  E  E  E  E  E     E   E  E  E  E  E  E  E
|---------------------------|---------------------------|
|---------------------------|---------------------------|
|--10--10-10-10-10-10-10-10-|--10--10-10-10-10-10-10-12-|
|---8---8--8--8--8--8--8--8-|---8---8--8--8--8--8--8-10-|
|---8---8--8--8--8--8--8--8-|---8---8--8--8--8--8--8-10-|
|---------------------------|---------------------------|
|
|   E   E  E  E  E  E  E  E     E   E  E  E  E  E  E  E
|---------------------------|---------------------------|
|---------------------------|---------------------------|
|---------------------------|---------------------------|
|---------------------------|---------------------------|
|---8---8--8--8--8--8--8--8-|---8---8--8--8--8--8--8-10-|
|---8---8--8--8--8--8--8--8-|---8---8--8--8--8--8--8-10-|
|
|  +E   Q     Q     Q     E    +E   Q     Q     Q     E
|---------------------------|---------------------------|
|---------------------------|---------------------------|
|-(10)-10----10----10----12-|-(12)-12-----9-----9----10-|
|-(15)-15----15----15----17-|-(17)-17----14----14----15-|
|---------------------------|---------------------------|
|---------------------------|---------------------------|


    E   E  E  E  E  E  E  E     E   E  E  E  E  E  E  E
|---------------------------|---------------------------|
|---------------------------|---------------------------|
|--12--12-12-12-12-12-12-12-|--12--12-12-12-12-12-12-14-|
|--10--10-10-10-10-10-10-10-|--10--10-10-10-10-10-10-12-|
|--10--10-10-10-10-10-10-10-|--10--10-10-10-10-10-10-12-|
|---------------------------|---------------------------|
|
|   E   E  E  E  E  E  E  E     E   E  E  E  E  E  E  E
|---------------------------|---------------------------|
|---------------------------|---------------------------|
|---------------------------|---------------------------|
|---------------------------|---------------------------|
|--10--10-10-10-10-10-10-10-|--10--10-10-10-10-10-10--0-|
|--10--10-10-10-10-10-10-10-|--10--10-10-10-10-10-10--0-|
|
|  +E   Q     Q     Q     E    +E   Q     Q     Q     E
|---------------------------|---------------------------|
|---------------------------|---------------------------|
|-(10)-10----10----10----12-|-(12)-12-----9-----9----10-|
|-(15)-15----15----15----17-|-(17)-17----14----14----15-|
|---------------------------|---------------------------|
|---------------------------|---------------------------|


    E   E  E  E  E  E  E  E     E   E  E  E  E  E  E  E
|---------------------------|---------------------------|
|---------------------------|---------------------------|
|--14--14-14-14-14-14-14-14-|--14--14-14-14-14-14-14-19-|
|--12--12-12-12-12-12-12-12-|--12--12-12-12-12-12-12----|
|--12--12-12-12-12-1





Comments


Popular In Fear And Faith tabs & chords
Live Love Die Bass Tabs
Dream Catcher Drum Tabs
A Creeping Dose Tabs
Bought The Ticket, Took The Ride Tabs
Pirates... The Sequel Tabs
The Taste Of Regret Tabs
The Taste Of Regret 1 Tabs
The Taste Of Regret Intro Tabs
Your World On Fire Intro Tabs


Song lyrics



↑ Back to top | Tablatures and chords are parodies/interpretations of the original songs. You may use it for private study, scholarship, research or language learning purposes only
© 2014 AZChords.com Contact us | Privacy policy | DMCA | Add/correct tabs | Request tabs | Top 50 tabs