» » »

In Fear And Faith, Bought The Ticket, Took The Ride Tabs (ver.1)

Artists:  A B C D E F G H I J K L M N O P Q R S T U V W X Y Z # 

Bought The Ticket, Took The Ride Tabs (ver.1)

In Fear And Faith Tabs
Rating:
0/5 (0 votes)
Bought The Ticket, Took The Ride lessons Tabs too difficult? Try these video lessons and learn fast
                Tuning: Drop C (CGCFAD)

I saw no tabs for the album Imperial by these guys, and even though they are pretty 
riffs, I still doubt this is 100% right, but I decided to put it up anyway.  

1-2-3-4=Beats per measure
/=Slide up
\=Slide down
*=Palm Mute


Intro
Guitar 1:
 1    2    3   4    1    2   3    4
|-------------------------------------|
|12-----12-----12-----12-----12-------|
|---9------9------9------9------9---9-| x10
|-----9------9------9------9------9---|
|-------------------------------------|
|-------------------------------------|

Guitar 2: Enter slightly after vocals
        1  3  1  3  1  3  4  1  3  1  3  1  3  1  3  4  1  3  1
|-------------------------------------------------------------------|
|-------------------------------------------------------------------|
|-------------5--5-----------------------5--5--------------4--------|
|-10/14\2--2--5--5--4--5--4--7--5--2--2--5--5--4--5--4--2--4--2-----|
|-10/14\2--2--3--3--4--5--4--7--5--2--2--3--3--4--5--4--2--2--2-----|
|-10/14\2--2--------4--5--4--7--5--2--2--------4--5--4--2-----2-----|

Verse
Guitars:
    1   2   3       4  1  2  3  4  1   2   3       4  1  2  3  4
|-----------------10-----------------------------10-----------------|
|-------5-7-8-7-5---------5------------5-7-8-7-5--------------------|
|-----------------7------------------------------7------------------|
|-/\222----------------22-2-00-00--222----------------22-3-33-33----|
|-/\222----------------22---00-00--222----------------22-3-33-33----|
|-/\222----------------22---00-00--222----------------22-3-33-33----|

  1   2   3       4  1  2  3  4  1 2 3 4  1 2 3 4
|---------------10------------------------------------------------|
|-----5-7-8-7-5---------5-----------------------------------------|
|---------------7----------------55555555-------------------------|
|-222----------------22-2-00-00--55555555-45----------------------|
|-222----------------22---00-00--33333333----57-------------------|
|-222----------------22---00-00-------------0--754----------------|
                                            *

  1   2   3       4  1  2  3  4  1 2 3 4 1 2 3 4
|---------------10------------------------------------------------|
|-----5-7-8-7-5---------5-----------------------------------------|
|---------------7-------------------------------------------------|
|-222----------------22-2-00-00--55555-5-77777-5/7\---------------|
|-222----------------22---00-00--55555-5-77777-5/7\---------------|
|-222----------------22---00-00--55555-5-77777-5/7\---------------|

    1   2   3       4  1  2  3  4  1 2 3 4  1 2 3 4
|-----------------10------------------------------------------------|
|-------5-7-8-7-5---------5-----------------------------------------|
|-----------------7----------------55555555-------------------------|
|-/\222----------------22-2-00-00--55555555-45----------------------|
|-/\222----------------22---00-00--33333333--------5----------------|
|-/\222----------------22---00-00-------------05745-----------------|
                                              *
Chorus:
Guitars:
 1        2        3        4        1        2        3
|--------------------------------------------------------------------|
|--------------------------------------------------------------------|
|55555555-99999999----------22224444-55555555-99999999---------------|
|55555555-99999999-55555555-22224444-55555555-99999999-55555555------|
|33333333-77777777-55555555-00002222-33333333-77777777-55555555------|
|------------------55555555----------------------------55555555------|
 4        1
|------------------------------------------------------------------|
|------------------------------------------------------------------|
|22224444-9--------------------------------------------------------|
|22224444-9--------------------------------------------------------|
|00002222-7--------------------------------------------------------|
|------------------------------------------------------------------|

Bridge:
Guitar 1:
 1   2   3   4   1   2   3   4   1   2   3   4   1   2   3   4
|------------------------------------------------------------------|
|------------------------------------------------------------------|
|------------------------------------------------------------------|
|22222----22--22-2-2-------------22222----22--22-2-2---------------|x4
|22222----22--22-2-2-------------22222----22--22-2-2---------------|
|22222----22--22-2-2-------------22222----22--22-2-2---------------|

Guitar 2: Comes in after Guitar one plays its riff twice
  1   1   1   1   3
|--------------------------------------------------------------------|
|--------------------------------------------------------------------|
|--------------------------------------------------------------------|
|/\2~~-0~~-5~~-7~~-9~~-----------------------------------------------|
|/\2~~-0~~-5~~-7~~-9~~-----------------------------------------------|
|/\2~~-0~~-5~~-7~~-9~~-----------------------------------------------|

Chorus:
Guitars:
 1        2        3        4        1        2        3
|--------------------------------------------------------------------|
|--------------------------------------------------------------------|
|55555555-99999999----------22224444-55555555-99999999---------------|
|55555555-99999999-55555555-22224444-55555555-99999999-55555555------|
|33333333-77777777-55555555-00002222-33333333-77777777-55555555------|
|------------------55555555----------------------------55555555------|
 4        1
|--------------------------------------------------------------------|
|--------------------------------------------------------------------|
|22224444-9----------------------------------------------------------|
|22224444-9----------------------------------------------------------|
|00002222-7----------------------------------------------------------|
|--------------------------------------------------------------------|
            
Submit corrections

comments powered by Disqus
↑ Back to top | In Fear And Faith Tabs for Bought The Ticket, Took The Ride. Lyrics for acoustic guitar and electric guitar. Tablatures and chords are parodies/interpretations of the original songs. You may use it for private study, scholarship, research or language learning purposes only