» » »

The Clap Tabs (ver.1)

Artists:  A B C D E F G H I J K L M N O P Q R S T U V W X Y Z # 

The Clap Tabs (ver.1)

Infant Sorrow
Rating:
0/5 (0 votes)

Hard to play? Try these video lessons and learn fast.
                (Intro)
The clap By infant sorrow  
grate song actualy was writen by Russel Brand

I ONLY FIGURED OUT THE INTRO IF YOU KNOW THE CHORUS AND THE REST PLEASE LET ME KNOW.

E------------------------------------I
B------------------------------------I
G------------------------------------I
D--------------5---------------------I
A--7-7-5-7---7---7---5/4/5-----------I
E------------------------------------I

E------------------------------------I
B------------------------------------I
G------------------------------------I
D--------------5---------------------I
A--7-7-5-7---7---7---5/4/5-----------I
E------------------------------------I

E------------------------------------I
B------------------------------------I
G------------------------------------I
D------------------------------------I
A--5-5-3-5--------5-5-3-5------------I
E------------------------------------I

THIS BASICALLY REPEATS THE WHOLE SONG
            
Hard to play? Try these video lessons and learn fast. | Correct




comments powered by Disqus
↑ Back to top | Tablatures and chords are parodies/interpretations of the original songs. You may use it for private study, scholarship, research or language learning purposes only