» » »

Infant Sorrow, The Clap Bass tabs (ver.1)

Artists:  A B C D E F G H I J K L M N O P Q R S T U V W X Y Z # 

The Clap Bass tabs (ver.1)

Infant Sorrow Tabs
 Rating:
4.2/5 (5 votes)
The Clap lessons Tabs too difficult? Try these video lessons and learn fast
                Intro
G|-----------------------------------------------------|
D|--------------5--------------------------------------|
A|---77-5-7---7----7-545-------------------------------|...play this part 2X
E|-----------------------------------------------------|

G|-------------------------------------------------------|
D|-------------------------------------------------------|
A|---4424------------4424--------------------------------|
E|-------------------------------------------------------|

Verse 1 (2X)
G|------------------------------------------------------|
D|--------------5---------------------------------------|
A|---77-5-7---7----7-545--------------------------------|...play this part 2X
E |-----------------------------------------------------|

G|-------------------------------------------------------|
D|-------------------------------------------------------|
A|---4424------------4424-/8-----------------------------|
E|-------------------------------------------------------|




Chorus
G|-------------------------------------------------------------|
D|-------------------------------------------------------------|
A|---000000000--44444444--22222222--77775757-------------------|
E|-------------------------------------------------------------|

G|-------------------------------------------------------------|
D|-------------------------------------------------------------|
A|---000000000-44444444--2202--2202----------------------------|
E|-------------------------------------------------------------|

Verse 2
G|------------------------------------------------------|
D|--------------5---------------------------------------|
A|---77-5-7---7----7-545--------------------------------|...play this part 4X
E |-----------------------------------------------------|

G|-------------------------------------------------------|
D|-------------------------------------------------------|
A|---4424------------4424-/8-----------------------------|
E |------------------------------------------------------|




G|------------------------------------------------------|
D|---------------5--------------------------------------|
A|---77-5-7---7----7-545--------------------------------|...play this part 2X
E |-----------------------------------------------------|

G|-------------------------------------------------------|
D|-------------------------------------------------------|
A|---4424------------4424-/8-----------------------------|
E |------------------------------------------------------|

Chorus
G|-------------------------------------------------------------|
D|-------------------------------------------------------------|
A|---000000000-44444444-22222222-77775757----------------------|
E|-------------------------------------------------------------|

G|---------------------------------------------------------------------|
D|--------------------------------------5------------------------------|
A|---000000000-44444444------77-5-7--7----7----545---------------------|
E|---------------------------------------------------------------------|
During Solo
G|--------------------------------------------------------------------------|
D|--------------5-----------------------------------------------------------|
A|---77-5-7---7----7-545--------------------------------...play this part 1-|4X
E|--------------------------------------------------------------------------|
Chorus
G|-------------------------------------------------------------|
D|-------------------------------------------------------------|
A|---000000000-44444444-22222222-77775757----------------------|
E|-------------------------------------------------------------|

G|--------------------------------------------------------------|
D|--------------------------------------------------------------|
A|---000000000-44444444--2222222---14-14-14-14-14-14-14-14-14---|
E|--------------------------------------------------------------|

G|-------------------------------------------------------------|
D|-------------------------------------------------------------|
A|---000000000-44444444-22222222-77775757----------------------|
E|-------------------------------------------------------------|

Ending
G|---------------------------------------------------|
D|---------------5-----------------------------------|
A|---77-5-7---7----7-545-----------------------------|...play this part 3X
E|---------------------------------------------------|
            
Submit corrections

comments powered by Disqus
↑ Back to top | Infant Sorrow Bass for The Clap. Lyrics for acoustic guitar and electric guitar. Tablatures and chords are parodies/interpretations of the original songs. You may use it for private study, scholarship, research or language learning purposes only