» » »

Gang Of Lust Tabs (ver.1)

Artists:  A B C D E F G H I J K L M N O P Q R S T U V W X Y Z # 

Gang Of Lust Tabs (ver.1)

Infant Sorrow
Rating:
4/5 (3 votes)

Hard to play? Try these video lessons and learn fast.
                I PLAY THIS SONG BY EAR AND I THINK IT IS 99% RIGHT

/-slide up
\-slide down
x-block

INTRO

1|----------------------------------------------------------------|
2|----------------------------------------------------------------|
3|----------------------------------7-5-2-------------------------|
4|-5/7777xx-------------------------7-5-2-------------------------|
5|-5/7777xx---(play this 3 times)---5-3-0-------------------------|
6|-3/5555xx-------------------------------------------------------|

this is played pretty much in the whole song

the part where he sings ''lets get f*cked'' goes like this:

1|---------------------------------------------------------------|
2|---------------------------------------------------------------|
3|-44(/)--7------------------------------------------------------|
4|-44(/)--7--(play this 3 times)---77-5--------------------------|
5|-22(/)--5------------------------77-5--------------------------|
6|---------------------------------55-3--------------------------|
(when u play the first part 3rd time play the last chord twice)
I KNOW THE LAST CHORD SOUNDS WRONG,IF U CAN FIND THE RIGHT TUNE GOOD FOR U

end with:

1|-------------------------------|
2|-------------------------------|
3|-4-7\\\\\----------------------|
4|-4-7\\\\\\---------------------|
5|-2-5\\\\\\\--------------------|
6|-------------------------------|
            
Hard to play? Try these video lessons and learn fast. | Correct




comments powered by Disqus
↑ Back to top | Tablatures and chords are parodies/interpretations of the original songs. You may use it for private study, scholarship, research or language learning purposes only