» » »

In Extremo, Unter Dem Meer Tabs (ver.1)

Artists:  A B C D E F G H I J K L M N O P Q R S T U V W X Y Z # 

Unter Dem Meer Tabs (ver.1)

In Extremo Tabs
 Rating:
3.6/5 (5 votes)
Unter Dem Meer lessons Tabs too difficult? Try these video lessons and learn fast
                -------------------------------------------------------------------------------
-------------------------------------------------------------------------------

Tuning: Standard


Intro+Verse
    Dm  Dsus4  Dm  Dsus4  C        C
e|-----5---------5---------3--------3-------|
B|--------8---------8---------5--------5----|
G|---7---7-----7---7-----5---5----5---5-----|
D|--7-7-------7-7-------5-5------5-5--------|
A|-5---------5---------3--------3-----------|
E|------------------------------------------|

alternatively: (same chords)

e|-----5-3------5-3-------3-0-----3-0-----|          
b|---3--2-----3--2------1--1----1--1------|           
g|--2-2------2-2-------0-0-----0-0--------|           
D|-0--------0-----------------------------|            
A|--------------------3-------3-----------|
E|----------------------------------------|



(Verse 1)
Dm       Dsus4
Tod bitterer Tod
Dm      Dsus4
Tod bitterer Tod
C
Du Räuber nahmst die Liebste mir
C
Und lässt mich leiden fern von ihr
Dm Dsus4
Tod bitterer Tod
Dm Dsus4
Hast du lebend sie gehasst
C
Nun bist du satt von diesen Bissen
C
Werd ohne Liebe leben müssen

(Pre-Chorus)
Dm                         G
Du schleichst so lautlos wie ein Tier
Dm                         G
Welcher Fluch treibt dich zu mir


(Chorus)
Dm                 G
Doch über den Wolken
Dm                 G
Und unter dem Meer
Dm                      G
Hinter all deinen Sünden
A
Werd ich dich finden
Dm                  G
Doch über den Wolken
Dm                 G
Und unter dem Meer
Dm             G
In deinem Heim
A
Wirst du nicht sicher sein


(V2)
Dm       Dsus4
Tod bitterer Tod
Dm       Dsus4
Tod bitterer Tod
C
Zwei waren wir - doch nur ein Herz
C
Wir teilten Liebe, wir teilten Schmerz
Dm            Dsus4
Tod grausamer Tod
Dm      Dsus4
Mich errdückt die Tränenlast
C
Bis zum Ende werd ich sie suchen
C
Bis zum Ende werd ich dich verfluchen


(PC)
Dm                               G
Du schleichst so lautlos wie ein Tier
Dm                           G
Welcher Fluch treibt dich zu mir


(C)
Dm                  G
Doch über den Wolken
Dm                G
Und unter dem Meer
Dm                      G
Hinter all deinen Sünden
A
Werd ich dich finden
Dm                  G
Doch über den Wolken
Dm                 G
Und unter dem Meer
Dm             G
In deinem Heim
A
Wirst du nicht sicher sein

(Solo)

(Outro)
e|--------------------------------|
B|----5-7--8-5---5-7--8-5---------|
G|---7----------7-----------------|
D|--------------------------------|
A|--------------------------------|
E|--------------------------------|

D 
Du bist zwar satt von diesen Bissen
D
Doch wirst mein Leid bald teilen müssen




--------------------------------------------------------------------------------  
            
Submit corrections

comments powered by Disqus
↑ Back to top | In Extremo Tabs for Unter Dem Meer. Lyrics for acoustic guitar and electric guitar. Tablatures and chords are parodies/interpretations of the original songs. You may use it for private study, scholarship, research or language learning purposes only