» » »

Requiem Tabs (ver.1)

Artists:  A B C D E F G H I J K L M N O P Q R S T U V W X Y Z # 

Requiem Tabs (ver.1)

In Extremo
Rating:
0/5 (0 votes)

Hard to play? Try these video lessons and learn fast.
                (Intro)
------------------------------------------------------------------------
                             Requiem - In Extremo
---------------------------------------------------------------------------

Tuning:Standard

e|--------------------------------------------------------------------------|
B|-----------------6--------------------------------------------------------|
G|-------7-9----7-9-----9--------------------12--10-9-----------------------|
D|-7---10----------------10-7-----7-10-9--5----------10-7-------------------|
A|--------------------------------------------------------------------------|
E|--------------------------------------------------------------------------|

e|------------------------------|
B|------------------------------|
G|------------------------------|
D|--7-10-9-10-10-9-9-10-10-9-7--|
A|------------------------------|
E|------------------------------|

e|--------------------------------------------------------------------------|
B|----------------------6---------------------------------------------------|
G|------------7-9----7-9-----9--------------------12--10-9------------------|
D|-10-9-7---10----------------10-7-----7-10-9--5----------10-7--------------|
A|--------------------------------------------------------------------------|
E|--------------------------------------------------------------------------|

e|------------------------------|
B|------------------------------|
G|------------------------------|
D|--7-10-9-10-10-9-9-10-10-9-7--|
A|------------------------------|
E|------------------------------|
            
Hard to play? Try these video lessons and learn fast. | Correct




comments powered by Disqus
↑ Back to top | Tablatures and chords are parodies/interpretations of the original songs. You may use it for private study, scholarship, research or language learning purposes only