>
 >
Omnia Sol Temperat

Omnia Sol Temperat Bass Tabs

In Extremo - Omnia Sol Temperat chords, tabs, tablatures, lyrics

Guitar lessons | Add/correct | Request | Top 50 tabs Artists:  A B C D E F G H I J K L M N O P Q R S T U V W X Y Z 0-9

Omnia Sol Temperat Bass Tabs – In Extremo

CD, Sheet music, Poster

Do you like Omnia Sol Temperat? Share with your friends now
Bass Tabs
Band: In Extremo
Tuning: Standard (GDAE)

Intro
G|-------|
D|-------|
A|-------|
E|--7\1--|

G|-----------------------------------------------|
D|-----------------------------------------------| x2
A|-----------------------------------------------|
E|--11-00--00-11-00--00-11-00--00-11-02223-------|

Chorus
G|-----------------------------------------------|
D|-----------------------------------------------|
A|-----------------------------------------------|
E|--5555555555555555-1111111111111111------------|

G|-----------------------------------------------|
D|-----------------------------------------------|
A|-----------------------------------------------|
E|--5555555555555578-1111111111123333------------|

Verse
G|-----------------------------------------------|
D|-----------------------------------------------| x4
A|--11-1111-1--33-3333-3-------------------------|
E|------------------------1-1111-1--00-000000----|

G|-----------------------------------------------|
D|-----------------------------------------------|
A|-----------11111111-33333333-------------------|
E|--00000000-------------------11111111----------|

G|-----------------------------------------------|
D|-----------------------------------------------|
A|-----------11111111-333-----333----------------|
E|--00000000--------------000-----000------------|

Chorus x2
Verse x1
Chorus x1

Bridge
G|------------------|
D|------------------|
A|------------------|
E|--0-0-0--0------|

G|--------------------|
D|--------------------| x6
A|--------------------|
E|--0-0000-1----------|

G|-----------------------------------------------|
D|-----------------------------------------------| x2
A|-----------------------------------------------|
E|--11-00--00-11-00--00-11-00--00-11-02223-------|

Chorus x3

End
G|--------------------------------------------|
D|--------------------------------------------| 
A|--------------------------------------------|
E|--11-00--00-11-00--00-11-00--00-11-00-------|





Comments


Popular In Extremo tabs & chords
In Extremo Bass Tabs
Frei Zu Sein Chords
Hiemali Tempore Chords
Spielmannsfluch Chords
Kss Mich Intro Tabs
Liam Tabs
Spielmannsfluch 2 Tabs
Villeman Og Magnhild Tabs
Ai Vis Lo Lop Ukulele
Spielmannsfluch Ukulele


Song lyrics



↑ Back to top | Tablatures and chords are parodies/interpretations of the original songs. You may use it for private study, scholarship, research or language learning purposes only
© 2014 AZChords.com Contact us | Privacy policy | DMCA | Add/correct tabs | Request tabs | Top 50 tabs