» » »

Herr Mannelig Tabs (ver.2)

Artists:  A B C D E F G H I J K L M N O P Q R S T U V W X Y Z # 

Herr Mannelig Tabs (ver.2)

In Extremo
Rating:
5/5 (2 votes)

Tabs too difficult? Try these video lessons and learn fast.
                I moved it to the lower frets (0-3) and I'm using 3 Strings.
So it sound a bit lower and in my eyes (or ears) more powerful.
And it's easier to play than the other Tabs I found.
I don't have do move my left hand even once.




e||-0-0-1-0-------------------------------------0---|
B||---------3-1---0-1-3-1-0------0-1--1-1-3-1-3---1-|
G||-------------2-----------2--2--------------------|
D||-------------------------------------------------|
A||-------------------------------------------------|
E||-------------------------------------------------|


e||-0-0-1-0-----------------------------------0-----|
B||---------3-1---0-1-3-1-0------0-1--3-3-1-3---1---|
G||-------------2-----------2--2--------------------|
D||-------------------------------------------------|
A||-------------------------------------------------|
E||-------------------------------------------------|


e||-0-0-1-0-----------------------------------0--3--|
B||---------3-1-1---0-1-3-1-0------0-1--3-1-3-------|
G||---------------2-----------2--2------------------|
D||-------------------------------------------------|
A||-------------------------------------------------|
E||-------------------------------------------------|

e||-0-0-1-0-----------------------------------------|
B||---------3-1-1---0-1-3-1-0------0-1-3--1-0-------|
G||---------------2-----------2--2------------2-----|
D||-------------------------------------------------|
A||-------------------------------------------------|
E||-------------------------------------------------|
            
Tabs too difficult? Try these video lessons and learn fast.




comments powered by Disqus
↑ Back to top | Tablatures and chords are parodies/interpretations of the original songs. You may use it for private study, scholarship, research or language learning purposes only