» » »

Savoure Le Rouge Bass tabs (ver.1)

Artists:  A B C D E F G H I J K L M N O P Q R S T U V W X Y Z # 

Savoure Le Rouge Bass tabs (ver.1)

Indochine
Rating:
0/5 (0 votes)

Hard to play? Try these video lessons and learn fast.
                Tuning: Standar (E,A,D,G)

VERSE : 
G|--------------------------------------------------------| 
D|--------------------------------------------2---2-------| 
A|--------2-3-4-4-4-4-3-2---------2-3-4-4-4-4---4---------| 
E|0-0-0-0-----------------0-0-0-0-------------------------| 


CHORUS : 
G|------------------------------------------------------------------| 
D|------------------------------------------------------------------| 
A|--------2-3-4-4-4-4-3-2-0-0-0-0-2-2---------2-2-2-2---------------| 
E|0-0-0-0-----------------------------0-0-0-0---------0-0-0-0-------|
            
Hard to play? Try these video lessons and learn fast. | Correct




comments powered by Disqus
↑ Back to top | Tablatures and chords are parodies/interpretations of the original songs. You may use it for private study, scholarship, research or language learning purposes only