» » »

Indochine, Popstitute Tabs (ver.1)

Artists:  A B C D E F G H I J K L M N O P Q R S T U V W X Y Z # 

Popstitute Tabs (ver.1)

Indochine Tabs
Rating:
0/5 (0 votes)
Popstitute lessons Tabs too difficult? Try these video lessons and learn fast
                "Popstitute" by "Indochine"

Standard Tuning

Intro:
******

E -9--9-9----------------------
B --------10-10-10--9--9--10---
G ---------------------------9-
D -----------------------------
A -----------------------------
E -----------------------------

Repeat this


Rest of the song:
****************

E ----------------------------------------
B ----------------------------------------
G ----------------------------------------
D -7-7-7--7-7-7--7-7-7--11-11-11--9-9-7-7-
A -7-7-7--7-7-7--7-7-7--11-11-11--9-9-7-7-
E -5-5-5--5-5-5--5-5-5--9--9--9---7-7-5-5-

Also repeat this...


Thanks
            

comments powered by Disqus
↑ Back to top | Indochine Tabs for Popstitute. Lyrics for acoustic guitar and electric guitar. Tablatures and chords are parodies/interpretations of the original songs. You may use it for private study, scholarship, research or language learning purposes only