» » »

Indochine, Alice & June Tabs (ver.1)

Artists:  A B C D E F G H I J K L M N O P Q R S T U V W X Y Z # 

Alice & June Tabs (ver.1)

Indochine Tabs
 Rating:
4/5 (4 votes)
Alice & June lessons Tabs too difficult? Try these video lessons and learn fast
1
                Par Jim Bopbop

**Désolé mais il manque une partie de la 2e guitare. Je n'arrive pas a trouver c'est
quoi. il y aura des "Guitare 2****" a l'endroit ou ces section sont supposé etre

Guitar 1
e|-----------------------------------------|
B|-----------------------------------------|
G|--3-3-3-3-2-2-2-2-7-7-7-7-7-7-7----------|
D|-----------------------------------------|2x
A|-----------------------------------------|
E|-----------------------------------------|

Guitar 1                                     ---|
e|-----------------------------------------|    |
B|-----------------------------------------|    |
G|--3-3-3-3-2-2-2-2-7-7-7-7-7-7-7----------|    |
D|-----------------------------------------|4x  |
A|-----------------------------------------|    |
E|-----------------------------------------|    |
                                                |
Guitar 2                                        |
e|-----------------------------------------|    |
B|-----------------------------------------|    |
G|-x-x-10-x-x-10-x-x-10-7-x-10-------------|    |
D|-----------------------------------------|4x  |
A|-----------------------------------------|    |
E|-----------------------------------------|    |
                                             ---|

Guitar 1                                     ---|    
e|-----------------------------------------|    |
B|-----------------------------------------|    |
G|-----------------7-7-7-7-7-7-7-7---------|    |
D|-8-8-8-8-3-3-3-3-7-7-7-7-7-7-7-7---------|4x  |
A|-8-8-8-8-3-3-3-3-5-5-5-5-5-5-5-5---------|    |
E|-6-6-6-6-1-1-1-1-------------------------|    |
                                                |
Guitar 2                                        |
e|-----------------------------------------|    |
B|-----------------------------------------|    |
G|-x-x-10-x-x-10-x-x-10-7-x-10-------------|    |
D|-----------------------------------------|4x  |
A|-----------------------------------------|    |
E|-----------------------------------------|    |
                                             ---|

Guitar 1                                     ---|
e|-----------------------------------------|    |
B|-----------------------------------------|    |
G|--3-3-3-3-2-2-2-2-7-7-7-7-7-7-7----------|    |
D|-----------------------------------------|8x  |
A|-----------------------------------------|    |
E|-----------------------------------------|    |
                                                |
Guitar 2                                        |
e|-----------------------------------------|    |
B|-----------------------------------------|    |
G|-x-x-10-x-x-10-x-x-10-7-x-10-------------|    |
D|-----------------------------------------|4x  |
A|-----------------------------------------|    |
E|-----------------------------------------|    |
                                                |
Guitare 2****                                   |
                                             ---|

Guitar 1                                     ---|
e|-----------------------------------------|    |
B|-----------------------------------------|    |
G|-----------------7-7-7-7-7-7-7-7---------|    |
D|-8-8-8-8-3-3-3-3-7-7-7-7-7-7-7-7---------|4x  |
A|-8-8-8-8-3-3-3-3-5-5-5-5-5-5-5-5---------|    |
E|-6-6-6-6-1-1-1-1-------------------------|    |
                                                |
Guitar 2                                        |
e|-----------------------------------------|    |
B|-----------------------------------------|    |
G|-3-2---3-2---3-2-0-2---------------------|    |
D|-----0-----0-----------------------------|4x  |
A|-----------------------------------------|    |
E|-----------------------------------------|    |
                                             ---|

Guitar 1                                     ---|
e|-----------------------------------------|    |
B|-----------------------------------------|    |
G|--3-3-3-3-2-2-2-2-7-7-7-7-7-7-7----------|    |
D|-----------------------------------------|8x  |
A|-----------------------------------------|    |
E|-----------------------------------------|    |
                                                |
Guitare 2****                                   |
                                             ---|

Guitar 1                                     ---|
e|-----------------------------------------|    |
B|-----------------------------------------|    |
G|-----------------7-7-7-7-7-7-7-7---------|    |
D|-8-8-8-8-3-3-3-3-7-7-7-7-7-7-7-7---------|8x  |
A|-8-8-8-8-3-3-3-3-5-5-5-5-5-5-5-5---------|    |
E|-6-6-6-6-1-1-1-1-------------------------|    |
                                                |
Guitare 2****                                   |
                                                |                
Guitar 2                                        |
e|-----------------------------------------|    |
B|-----------------------------------------|    |
G|-3-2---3-2---3-2-0-2---------------------|    |
D|-----0-----0-----------------------------|4x  |
A|-----------------------------------------|    |
E|-----------------------------------------|    |
                                             ---|

Guitar 1
e|-----------------------------------------|
B|-----------------------------------------|
G|-7-5---2--2-2-------3-2------------------|
D|-----3--------5-3-5----------------------|
A|-----------------------------------------|
E|-----------------------------------------|

Guitar 1                                     
e|-----------------------------------------|    
B|-----------------------------------------|    
G|-x-x-10-x-x-10-x-x-10-7-x-10-------------|    
D|-----------------------------------------|3x  
A|-----------------------------------------|
E|-----------------------------------------|

Guitar 1                                     ---|
e|-----------------------------------------|    |
B|-----------------------------------------|    |
G|-x-x-10-x-x-10-x-x-10-7-x-10-------------|    |
D|-----------------------------------------|    |
A|-----------------------------------------|    |
E|-----------------------------------------|    |
                                                |
Guitar 2                                        |
e|-----------------------------------------|    |
B|-----------------------------------------|    |
G|--3-3-10-3-2-2-2-7-7-7-7-7-7-7-----------|    | 
D|-----------------------------------------|    |
A|-----------------------------------------|    |
E|-----------------------------------------|    |
                                             ---|

Guitar 1                                     ---|
e|-----------------------------------------|    |
B|-----------------------------------------|    |
G|-----------------7-7-7-7-7-7-7-7---------|    |
D|-8-8-8-8-3-3-3-3-7-7-7-7-7-7-7-7---------|8x  |
A|-8-8-8-8-3-3-3-3-5-5-5-5-5-5-5-5---------|    |
E|-6-6-6-6-1-1-1-1-------------------------|    |
                                                |
Guitare 2****                                   |
                                             ---|

Guitar 1                                     ---|
e|-----------------------------------------|    |
B|-----------------------------------------|    |
G|-----------------7-7-7-7-7-7-7-7---------|    |
D|-8-8-8-8-3-3-3-3-7-7-7-7-7-7-7-7---------|4x  |
A|-8-8-8-8-3-3-3-3-5-5-5-5-5-5-5-5---------|    |
E|-6-6-6-6-1-1-1-1-------------------------|    |
                                                |
Guitar 2                                        |
e|-----------------------------------------|    |
B|-----------------------------------------|    |
G|-3-2---3-2---3-2-0-2---------------------|    |
D|-----0-----0-----------------------------|4x  |
A|-----------------------------------------|    |
E|-----------------------------------------|    |
                                             ---|
Guitar 2
e|-----------------------------------------|
B|-----------------------------------------|
G|-3-2-------------------------------------|
D|-----0-----------------------------------|
A|-----------------------------------------|
E|-----------------------------------------|
            
Submit corrections

comments powered by Disqus
↑ Back to top | Indochine Tabs for Alice & June. Lyrics for acoustic guitar and electric guitar. 1 Tablatures and chords are parodies/interpretations of the original songs. You may use it for private study, scholarship, research or language learning purposes only