» » »

Indk, Sunday Bombs Tabs (ver.1)

Artists:  A B C D E F G H I J K L M N O P Q R S T U V W X Y Z # 

Sunday Bombs Tabs (ver.1)

Indk Tabs
 Rating:
4/5 (4 votes)
Sunday Bombs lessons Tabs too difficult? Try these video lessons and learn fast
1
                Make sure its in Basic as all other INDK songs are

First Part:
e---------0---------|
B---------0---------|
G---9~----9---------|
D---9~----9---------|
A---7~----7---------|
E-------------------|

e---------        -----------------------------------------|
B---------        --------   That whole riff is done-------| X2
G----5--7-        -12-11-7   <-----------------------------|
D-2--5--7- <-X3   -x--x--x      and we'll call this riff 1-|
A-2--3--5- Then-> -10-9--5---------------------------------|
E-0-------        -----------------------------------------|

Verse:

e-------------------|
B-------------------|
G----5--7--9---7--5-|   Thats done X4 But the 3rd and 4th time
D-2--5--7--9---7--5-|                    the open E is muted
A-2--3--5--7---5--3-|             and we will call this riff 2
E-0-----------------|


Chorus:
e-----------------                                e----------|
B-----------------                                B----------|
G--3--5--2--3-----  <-- X3 but the third time     G-----5--7-|
D--3--5--2--3--5--         instead of 5  you go   D--2--5--7-|
A--5--3--0--5--5--                    5           A--2--3--5-|
E--------------3--                    3           E--0-------|


Then back to riff 1 (X1)

Then Verse

Then the whole chorus X2

Solo:

e--15*-14--12---------------------------------------------------|
B-------------15*--12-13-12--------------------------12-13 <----|part A
G--------------------------------14--12-------12-14-------------|      of solo
D-----------------------------------------14--------------------|   (lead guitar)
A---------------------------------------------------------------|
E---------------------------------------------------------------|

e---------------------------------------------------------------------------|
B-13*--12--12-13p12-12*-15p12(x3)--13--12-------------------13-12-----------|
G-----------------------------------------14--12-------12-14------14-12-----|
D------------------------------------------------14-14-------------------14-|
A---------------------------------------------------------------------------|
E---------------------------------------------------------------------------|
                          ^part B of solo  (lead)


During the solo (part A) the rhythem guitar plays the chorus X2
And during part B the rhythem plays riff 2 X1 then riff one X1

thats it all of sunday bombs but like i said make sure your guitar is in basic f**ker!!!
            
Submit corrections

comments powered by Disqus
↑ Back to top | Indk Tabs for Sunday Bombs. Lyrics for acoustic guitar and electric guitar. 1 Tablatures and chords are parodies/interpretations of the original songs. You may use it for private study, scholarship, research or language learning purposes only