» » »

Indk, Set-up Tabs (ver.1)

Artists:  A B C D E F G H I J K L M N O P Q R S T U V W X Y Z # 

Set-up Tabs (ver.1)

Indk Tabs
 Rating:
4/5 (4 votes)
Set-up lessons Tabs too difficult? Try these video lessons and learn fast
                -------------------------------------------------------------------------------
-------------------------------------------------------------------------------

Intro
e|---------------------------------------------------------------------------|
B|---------------------------------------------------------------------------|
G|-------4---------9-9-9-8---------------4---------9-9-9-11------------------|
D|-6-6-6-4--x-x-x--9-9-9-8--x-x-x--6-6-6-4--x-x-x--9-9-9-11------------------|
A|-6-6-6-2--x-x-x--7-7-7-6--x-x-x--6-6-6-2--x-x-x--7-7-7-9-------------------|
E|-4-4-4----x-x-x-----------x-x-x--4-4-4----x-x-x----------------------------|

Verse - Played over Intro
e|---------------------------------------------------------------------------|
B|-4-4-4-4-4-4-4-4-4-4-4-4-4-4-4-4-4-4-4-4-4-4-4-4-4-4-4-4-4-4-4-4-4-4-------|
G|---------------------------------------------------------------------------|
D|----------------------------------------------------------------------6~---|
A|----------------------------------------------------------------------6~---|
E|----------------------------------------------------------------------4~---|

Pre-Chorus
e|---------------------------------------------------------------------------|
B|---------------------------------------------------------------------------|
G|-----------4---------6-66-444-9-9999999------------------------------------|
D|-6-66--444-4-22-2222-6-66-444-9-9999999------------------------------------|
A|-6-66--444-2-22-2222-4-44-222-7-7777777------------------------------------|
E|-4-44--222---00-0000-------------------------------------------------------|

Chorus
e|---------------------------------------------------------------------------|
B|---------------------------------------------------------------------------|
G|--------------------4-4-------4-4------------------------------------------|
D|-6-66-4-4-2-2222222-4-4-4-444-4-4-4-444------------------------------------|
A|-6-66-4-4-2-2222222-2-2-4-444-2-2-4-444------------------------------------|
E|-4-44-2-2-0-0000000-----2-222-----2-222------------------------------------|

Bridge thing
e|---------------------------------------------------------------------------|
B|---------------------------------------------------------------------------|
G|---------------666---------------------------------------------------------|
D|-6-6-6666-4-44-666-6-6-6-666-9-8-6~----------------------------------------|
A|-6-6-6666-4-44-444-6-6-6-666-----------------------------------------------|
E|-4-4-4444-2-22-----4-4-4-444-------------------------------------------------|


Outro
e|---------------------------------------------------------------------------|
B|---------------------------------------------------------------------------|
G|-4-4-----------------------------------------------------------------------|
D|-4-4--------6666\----------------------------------------------------------|
A|-2-2-4-444--6666\----------------------------------------------------------|
E|-----2-222--4444\----------------------------------------------------------|

Order:
Intro      X 1
Verse      X 1
Pre-Chorus X 4
Chorus     X 4
Verse      X 1
Pre-Chorus X 4
Chorus     X 4
Bridge     X 4
Chorus     X 4
Outro      X 1


| /  slide up
| \  slide down
| h  hammer-on
| p  pull-off
| ~  vibrato
| +  harmonic
| x  Mute note
===============================================================================
            
Submit corrections

comments powered by Disqus
↑ Back to top | Indk Tabs for Set-up. Lyrics for acoustic guitar and electric guitar. Tablatures and chords are parodies/interpretations of the original songs. You may use it for private study, scholarship, research or language learning purposes only