» » »

Off The Scope Bass tabs (ver.1)

Artists:  A B C D E F G H I J K L M N O P Q R S T U V W X Y Z # 

Off The Scope Bass tabs (ver.1)

Indk
Rating:
0/5 (0 votes)

Hard to play? Try these video lessons and learn fast.
                INDK
Kill Whitey!

Intro
Gb|---------|
Db|---------|
Ab|---------|
Eb|-0/14�--|

Gb|------------------|
Db|------------------| (x4)
Ab|------------------|
Eb|-0-00-00-6-66-66--|

Gb|-----------------------------------|
Db|-----------------------------------| 
Ab|-----------------------------------|
Eb|-0-00-00-2-23-33--5-55-55-7-78-88--|

Gb|---------------------------------------------------|
Db|---------------------------------------------------| 
Ab|----------------------------------5----------------|
Eb|-0-00-00-2-23-33--5-55-55-7-5-8-5-----3-0-3-0-3-0--|

Verse
Gb|-----------------------------------|
Db|-----------------------------------| (x4)
Ab|-----------------------------------|
Eb|-0-00-00-2-23-33--5-55-55-7-78-88--|

Chorus
Gb|---------------------------------|
Db|---------------------------------| (x4)
Ab|------------------5-55-55-77-33--|
Eb|-0-00-00-2-23-33-----------------|

Post-Chorus
Gb|---------|
Db|---------|
Ab|---------|
Eb|-0/14�--|

Gb|------------------|
Db|------------------| (x8)
Ab|------------------|
Eb|-0-00-00-6-66-66--|

Verse
Gb|-----------------------------------|
Db|-----------------------------------| (x4)
Ab|-----------------------------------|
Eb|-0-00-00-2-23-33--5-55-55-7-78-88--|

Chorus
Gb|---------------------------------|
Db|---------------------------------| (x4)
Ab|------------------5-55-55-77-33--|
Eb|-0-00-00-2-23-33-----------------|

Bridge
Gb|---------------------------------------|
Db|---------------------------------------|
Ab|-7-77-77-5-55-55-10-1010-1010-3-33-33--|
Eb|---------------------------------------|

Gb|---------------------------------------|
Db|---------------------------------------|
Ab|-7-77-77-5-55-55-10-10-10-10--3-3-3-3--|
Eb|---------------------------------------|

Gb|---------------------------------------|
Db|---------------------------------------|
Ab|-7-77-77-5-55-55-10-1010-1010-3-33-33--|
Eb|---------------------------------------|

Gb|------------------------------------------|
Db|------------------------------------------|
Ab|-7-77-77-5-55-55-10-10-10-10--3--3--3--3--|
Eb|------------------------------------------|

Outro
Gb|------------------|
Db|------------------| (x4)
Ab|------------------|
Eb|-0-00-00-6-66-66--|

Gb|----|
Db|----| 
Ab|----|
Eb|-0--|
            
Hard to play? Try these video lessons and learn fast. | Correct




comments powered by Disqus
↑ Back to top | Tablatures and chords are parodies/interpretations of the original songs. You may use it for private study, scholarship, research or language learning purposes only