>
 >
Moonwalk Mafia

Moonwalk Mafia Bass Tabs

Indk - Moonwalk Mafia chords, tabs, tablatures, lyrics

Guitar lessons | Add/correct | Request | Top 50 tabs Artists:  A B C D E F G H I J K L M N O P Q R S T U V W X Y Z 0-9

Moonwalk Mafia Bass Tabs – Indk

CD, Sheet music, Poster

Do you like Moonwalk Mafia? Share with your friends now
Bass TabsTabsTabs v2
INDK
Kill Whitey!

Intro
Gb|------------------------------|
Db|------------------------------| (x2)
Ab|-5-------5-------2-------2----|
Eb|---5-555---5-555---3-333---3--|

Gb|-----------------------------------|
Db|-----------------------------------|
Ab|-----------------22222222----------|
Eb|-2-22-22-3-33-33---------55555555--|

Gb|--------------------------------------------------|
Db|--------------------------------------------------|
Ab|-----------------2222222222222222-----------------|
Eb|-2-22-22-3-33-33-----------------555555555-3-2-0--|

Gb|----------------------------------------|
Db|----------------------------------------|
Ab|----------------------------------------|
Eb|-5------55------555------3-33-3-3-32-0--|

Verse 1
Gb|----------------------------------------|
Db|---------------4h5p4-----------------2--| (x3)
Ab|-----4h5h7p5-5-------------------4h5----|
Eb|-5-5-----------------33-3-3-33-3--------|

Gb|----------------------|
Db|---------------4h5p4--|
Ab|-----4h5h7p5-5--------|
Eb|-5-5------------------|

Pre-Chorus
Gb|------------------------------|
Db|------------------------------| (x5)
Ab|-5-------5-------2-------2----|
Eb|---5-555---5-555---3-333---3--|

Gb|----------------------------------------------------|
Db|----------------------------------------------------|
Ab|-5-------5-------2-2-2-2--4-4-4-4--5-5-5-5-5-5-5-5--|
Eb|---5-555---5-555------------------------------------|

Solo 1
Gb|------------------------------|
Db|------------------------------| (x4)
Ab|-5-------5-------2-------2----|
Eb|---5-555---5-555---3-333---3--|

Gb|----------------------------------------------------|
Db|----------------------------------------------------|
Ab|-5-------5-------2-2-2-2----------------------------|
Eb|---5-555---5-555----------5-5-5-5--3-3-3-3-3-3-3-3--|

Chorus
Gb|----------------------------------|
Db|----------------------------------| (x3)
Ab|-----------------2-2-2-2----------|
Eb|-2-2-2-2-3-3-3-3---------5-5-5-5--|

Gb|--------------------------------------------------|
Db|--------------------------------------------------|
Ab|-----------------2-2-2-2-2-2-2-2------------------|
Eb|-2-2-2-2-3-3-3-3-----------------5-5-5-5-5-3-2-0--|

Verse 2
Gb|------------------------------|
Db|------------------------------| (x5)
Ab|-5-------5-------2-------2----|
Eb|---5-555---5-555---3-333---3--|

Gb|----------------------------------------------------|
Db|----------------------------------------------------|
Ab|-5-------5-------2-2-2-2----------------------------|
Eb|---5-555---5-555----------5-5-5-5--3-3-3-3-3-3-3-3--|

Chorus
Gb|----------------------------------|
Db|----------------------------------| (x3)
Ab|-----------------2-2-2-2----------|
Eb|-2-2-2-2-3-3-3-3---------5-5-5-5--|

Gb|--------------------------------------------------|
Db|--------------------------------------------------|
Ab|-----------------2-2-2-2-2-2-2-2------------------|
Eb|-2-2-2-2-3-3-3-3-----------------5-5-5-5-5-3-2-0--|

Solo 2
Gb|-----------------------------|
Db|-----------------------------|
Ab|-55-5-55-5-55-5-55-5-55-5-5--|
Eb|-----------------------------|

Gb|------------------------------|
Db|------------------------------| (x2)
Ab|-5-------5-------2-------2----|
Eb|---5-555---5-555---3-333---3--|

Gb|-----------------------------------|
Db|-----------------------------------| (x5)
Ab|-----------------22222222----------|
Eb|-2-22-22-3-33-33---------55555555--|

Gb|---------------------|
Db|---------------------|
Ab|-----------------2~--|
Eb|-2-22-22-3-33-33-----|

Outro

Gb|-------------------------------------------|
Db|---------------4h5p4--------------------2--| (x5)
Ab|-----4h5h7p5-5-----------2h3h5------4h5----|
Eb|-5-5-----------------3-3-------3-3-3-------|

Gb|----------------------------------------|
Db|---------------4h5p4--------------------|
Ab|-----4h5h7p5-5--------------------------|
Eb|-5-5-----------------33-3-3-33-2-0-2-5--|





Comments


Popular Indk tabs & chords
Off The Scope Bass Tabs
Rent For Sale Bass Tabs
Sunday Bombs Bass Tabs
East Coast Rising Tabs
East Coast Rising 1 Tabs
Feeeling Lucky Punk Tabs
Feeling Lucky Punk Tabs
Set-up Tabs
Start It Up Tabs
Start It Up 1 Tabs


Song lyrics



↑ Back to top | Tablatures and chords are parodies/interpretations of the original songs. You may use it for private study, scholarship, research or language learning purposes only
© 2014 AZChords.com Contact us | Privacy policy | DMCA | Add/correct tabs | Request tabs | Top 50 tabs