>
 >
Living With L.E.S

Living With L.E.S Guitar Tabs

Indk - Living With L.E.S chords, tabs, tablatures, lyrics

Guitar lessons | Add/correct | Request | Top 50 tabs Artists:  A B C D E F G H I J K L M N O P Q R S T U V W X Y Z 0-9

Living With L.E.S Guitar Tabs – Indk

CD, Sheet music, Poster

Do you like Living With L.E.S? Share with your friends now
Tabs

-------------------------------------------------------------------------------------
Living With L.E.S. - Indk
-------------------------------------------------------------------------------------

Intro: (distorted power chords)
e|----------| |-------------------|
b|----------| |-------------------|
g|----------| |-----3-----5-------|
d|--5--7--8-| |--3--3--5--5-------|
a|--5--7--8-| |--3--1--5--3-------|
e|--3--5--6-| X2 |--1-----3-------| X2

Verse: (light ska beats) (2 times regular, one time changed)
* *
e|5--5--6-----3--5--3----| |-5---|
b|6--5--6--10-3--6--3--5-| |-6---|
g|7--6--7--10-3--7--3--5-| |-7---|
d|---7--8--10-5-----5--5-| |-----|
a|-----------------------| |-----|
e|-------------------------------| X2 then:

Chorus:
e|---------| |------------------|
b|---------| |------------------|
g|---------| |-----3-----5------|
d|--5--7--8| |--3--3--5--5------|
a|--5--7--8| |--3--1--5--3------|
e|--3--5--6| X2 |--1-----3------| X5 (last time with palm mute)

then:
e|--------------------|
b|--------------------|
g|7--5--3-----2--3--5-|
d|7--5--3--3--2--3--5-|
a|5--3--1--3--0--1--3-| X2 Obviously, the second time through play the last
e|---------1----------| three chords at a slower pace.


Verse:
Play exactly the same all 3 times through, except on the final chord make it:
e|--|
b|6-|
g|6-|
d|6-|
a|--| instead of the half step lower. Yeah, play that and hold it until
e|--| the solo starts.

solo:
Not perfect, but it just goes over an F major scale mostly.
triplet triplet
e|-------------------------------------------------------------------|
b|-------------------------------------------------------------------|
g|-------------------------------------------------------------------|
d|-8---7---8-7---8-7---10-8-7----------7-8---8-10-8---10-12-10-------|
a|-------------8-----8--------8-10-7-------8--------8----------8-----|
e|-----------------------------------8-------------------------------|

-----------------------------------------------------------------------|
-------------------10-8------------------------------------------------|
---s/10-9-10-12-10------10-9-7---10-9-7----7---------------------------|
----------------------------------------10---10-8-7-10-8-7-------------|
-----------------------------------------------------------10-8-7---10-|
------------------------------------------------------------------8----|

----------------------------------------|
----------------------------------------|
----------------------------------------|
---(something crazy)-10-8-7-------------|
----------------------------10-8-7-10-8-|
----------------------------------------|

2nd Guitar during solo:
e|-------------|
b|-------------|
g|----3-----5--|
d|-3--3--5--5--|
a|-3--1--5--3--|
e|-1-----3-----| X2

Then chorus:
|-------------|
|-------------|
|-----3-----5-|
|--3--3--5--5-|
|--3--1--5--3-|
|--1-----3----| X5 (last time with palm mute)

then:
e|--------------------|
b|--------------------|
g|7--5--3-----2--3--5-|
d|7--5--3--3--2--3--5-|
a|5--3--1--3--0--1--3-| X2 Obviously, the second time through play the last
e|---------1----------| three chords at a slower pace.

After chorus:
e|-------------------------|
b|-------------------------|
g|-7--------------7-----5--|
d|-7--7--8--3--5--7--5--5--|
a|-5--7--8--3--5--5--5--3--|
e|----5--6--1--3-----3-----|

e|-----------------------------------------------------------------------|
b|-----------------------------------------------------------------------|
g|-7--9---10-----9---10-----9---10------10--9-------9---10------10--9----|
d|-7----------7----------8-----------3-----------5-----------0-----------|
a|-5--7---8---7--7---8---8--7---8----3--8---7----5--7---8----0--8---7----|
e|------------5----------6-----------1-----------3-----------------------|

----------------------|
----------------------|
---------5--7--9---7--|
5--7--8--5---------7--|
5--------3--5--7---5--|
3--5--6---------------|


Outro:
e|5--5--------3--5--3-----------------------------------------------------------------|
b|6--5--6--1--3--6--3--5--------------------------------------------------------------|
g|7--6--7--2--3--7--3--5--7-----------------------------------------------------------|
d|---7--8--3--5-----5--5--7--7--8--11-------------------------------------------------|
a|------------------------5--7--8--11-------------------------------------------------|
e|---------------------------5--6--9--------------------------------------------------|





Comments


Popular Indk tabs & chords
Rent For Sale Bass Tabs
Sunday Bombs Bass Tabs
East Coast Rising 1 Tabs
Feeeling Lucky Punk Tabs
Moonwalk Mafia Tabs
Pole Position Tabs
Set-up Tabs
Start It Up Tabs
Start It Up 1 Tabs
Sunday Bombs Tabs


Song lyrics



↑ Back to top | Tablatures and chords are parodies/interpretations of the original songs. You may use it for private study, scholarship, research or language learning purposes only
© 2014 AZChords.com Contact us | Privacy policy | DMCA | Add/correct tabs | Request tabs | Top 50 tabs