>
 >
Feeeling Lucky Punk

Feeeling Lucky Punk Guitar Tabs

Indk - Feeeling Lucky Punk chords, tabs, tablatures, lyrics

Guitar lessons | Add/correct | Request | Top 50 tabs Artists:  A B C D E F G H I J K L M N O P Q R S T U V W X Y Z 0-9

Feeeling Lucky Punk Guitar Tabs – Indk

CD, Sheet music, Poster

Do you like Feeeling Lucky Punk? Share with your friends now
Tabs
feeling lucky punk
indk

intro
e|------------------------------|
B|------------------------------|
G|------------------------------|
D|-101010-777-555-333-----------|
A|-101010-777-555-333-----------|  X 4
D|-101010-777-555-333-----------|

then
e|-----|
B|-----|
G|-----|
D|--10-|
A|--10-|
D|--10-|

verse
guitar 1
e|-------------------------------------------------|
B|-------------------------------------------------|
G|-10--9------10--9------10--9-------12-10---------|
D|--------777--------333--------555---------101010-|
A|--8--7-777--8-7--333--8--7--555--10--8-101010-|
D|--------777--------333--------555---------101010-|

  ---------------------------------------|
  ---------------------------------------|
  -109------109------10--9-------12-10-|
  -------777-------333--------555--------|
  --8-7--777-8-7--333-8--7-555--10--8-|
  -------777-------333--------555--------|

  --------------------------------------|
  --------------------------------------|
  ---------12-10-------12-10------10--9-|
  -101010---------777---------333-------|
  -101010--10--8-777--10-8--333--8--7-|
  -101010---------777---------333-------|

  ---------------------------------------------|
  ---------------------------------------------|
  -----14-12---------109-----10--9------1010-|
  -555---------101010------777--------333------|
  -555--12-10--101010--8-7777-8--7-333-8-8-|
  -555---------101010------777--------333------|

  ----------------------------------|
  ----------------------------------|
  ----------------------------------|
  -555555555555---------------------|
  -555555555555---------------------|
  -555555555555---------------------|

guitar 2
e|------------------------------------------|
B|------------------------------------------|
G|------------------------------------------|
D|-777777--333333---555555---101010101010--|
A|-777777---333333---555555---101010101010--|
D|-777777---333333---555555---101010101010--|
   ......   ......   ......   ............

chorus
both guitars
e|------------------------------------|
B|------------------------------------|
G|------------------------------------|
D|-101010-777-555-333-101010-5550-2-3|  X 2
A|-101010-777-555-333-101010-5550-2-3|
D|-101010-777-555-333-101010-5550-2-3|

End
e|---------------------------------------------|
B|---------------------------------------------|
G|---------------------------------------------|
D|-0-2-3--00--0-2-3--00--0-2-3--00--10---------|
A|-0-2-3--00--0-2-3--00--0-2-3--00--10---------|
D|-0-2-3--00--0-2-3--00--0-2-3--00--10---------|





Comments


Popular Indk tabs & chords
East Coast Rising Bass Tabs
Moonwalk Mafia Bass Tabs
Off The Scope Bass Tabs
Sunday Bombs Bass Tabs
East Coast Rising Tabs
Killing Is Contagious Tabs
Livin With Les Tabs
Living With L.E.S Tabs
Moonwalk Mafia 2 Tabs
Start It Up 1 Tabs


Song lyrics



↑ Back to top | Tablatures and chords are parodies/interpretations of the original songs. You may use it for private study, scholarship, research or language learning purposes only
© 2014 AZChords.com Contact us | Privacy policy | DMCA | Add/correct tabs | Request tabs | Top 50 tabs