» » »

Collecting You Tabs (ver.1)

Artists:  A B C D E F G H I J K L M N O P Q R S T U V W X Y Z # 

Collecting You Tabs (ver.1)

Indigo Girls
Rating:
0/5 (0 votes)

Hard to play? Try these video lessons and learn fast.
                this is the main riff. It's repeted all through the song...have fun!

(  In the song there is more bass added, but it's somewhat hard to hear..so just play 
it. )


e-------2-------------2-------------2--------------2--------|
b-----2---0-2-0-----2---0-2-0-----0---0---0------0---0---0--|
g---4-------------4-------------4-------4------4-------4----|  times 3?
d-----------------------------------------------------------|
a-2-------------1-------------------------------------------|
e-----------------------------4--------------2--------------|


e------------------------------------------2--------------2---------|
b-----0---0---0--------0---0---0---------0---0---0------0---0---0---|
g---4---2---2---(2)---4---2---2--(2)---4-------4------4-------4-----|
d-------------------------------------------------------------------|
a-2----------------1------------------------------------------------|
e------------------------------------4--------------2---------------|

e----------------2------|
b-----0---0---0--0------|
g---4---2---2----4------|
d-----------------------|
a-2--------------2------|
e-----------------------|
            
Hard to play? Try these video lessons and learn fast. | Correct




comments powered by Disqus
↑ Back to top | Tablatures and chords are parodies/interpretations of the original songs. You may use it for private study, scholarship, research or language learning purposes only