» » »

India Arie, Private Party Tabs (ver.1)

Artists:  A B C D E F G H I J K L M N O P Q R S T U V W X Y Z # 

Private Party Tabs (ver.1)

India Arie Tabs
 Rating:
4/5 (4 votes)
Private Party lessons Tabs too difficult? Try these video lessons and learn fast
1
                -------------------------------------------------------------------------------
-------------------------------------------------------------------------------

Tuning: Standard

Verse/Chorus

      Eb7    Dm7    Bb    Ab      Eb7    Dm7    Bb     

e|----6------5------1------4-------6------5------1---------------------------|
B|----8------6------3------4-------8------6------3---------------------------|
G|----6------5------3------5-------6------5------3----4-/-5-/-7-/-8----------|
D|----8------7------3------6-------8------7------3---------------------------|
A|----6------5------1------6-------6------5------1----2-/-3-/-5-/-6----------|
E|-------------------------4-------------------------------------------------|

Repeat this pattern for the duration of the song

/   slide up

---------------------------

Danielle C
            
Submit corrections

comments powered by Disqus
↑ Back to top | India Arie Tabs for Private Party. Lyrics for acoustic guitar and electric guitar. 1 Tablatures and chords are parodies/interpretations of the original songs. You may use it for private study, scholarship, research or language learning purposes only