» » »

Vitamin Bass tabs (ver.1)

Artists:  A B C D E F G H I J K L M N O P Q R S T U V W X Y Z # 

Vitamin Bass tabs (ver.1)

Incubus
Rating:
0/5 (0 votes)

Hard to play? Try these video lessons and learn fast.
                (2)
IIIIIIIIII NNN  NN CCCCCCCCC UU    UU BBBBBBBB UU    UU SSSSSSSS   
    II     NNNN NN CCCCCCCCC UU    UU BB    BB UU    UU SS
    II     NN NNNN CC        UU    UU BBBBBBB  UU    UU SSSSSSSS
    II     NN  NNN CCCCCCCCC UUUUUUUU BB    BB UUUUUUUU       SS
IIIIIIIIII NN   NN CCCCCCCCC UUUUUUUU BBBBBBBB UUUUUUUU SSSSSSSS
VITAMIN
Transcripted by me with a little help from my brain
part between chorus n with techno part
G)-----------------------------------------------------------
D)-----------------------------------------------------------
A)-----------------------------------------------------------
E)--0-0-0-0000-0-0-0000-0-0-0000-0-0-000---------------------

chorus intro--- n also at the end
G)-----------------------------------------------------------
D)-----------------------------------------------------------
A)-77--35--77--35--77--35--77--35----------------------------
E)---00--00--00--00--00--00--00--00--------------------------

r=repeat
chorus---cool part--- try it with slap cause it sound good
G)---------------------------------rr--rr-----------------------
D)----------------------------------rrrr------------------------
A)-77--35--55--02--77--35--55--02---rrrr------------------------
E)---00--33--11--00--00--33--11--00rr--rr-----------------------

break it down now!(cool part)
G)----------------------------------------------------------------
D)---2-2----------------------------------------------------------
A)------3-2-2-----------------------------------------------------
E)-----------3----------------------------------------------------

Then play the chorus and then next play the intro. this song is quite easy, so dont be intimidated by the way the tabs look. hey, and for incubus, spread the word... their the next big thing. INCUBUS ROCKS! says I. hey dont for get to rate this tab.
            
Hard to play? Try these video lessons and learn fast. | Correct




comments powered by Disqus
↑ Back to top | Tablatures and chords are parodies/interpretations of the original songs. You may use it for private study, scholarship, research or language learning purposes only