» » »

Stellar Corrected Tabs (ver.1)

Artists:  A B C D E F G H I J K L M N O P Q R S T U V W X Y Z # 

Stellar Corrected Tabs (ver.1)

Incubus
Rating:
0/5 (0 votes)

Hard to play? Try these video lessons and learn fast.
                PROPS GO TO: Bikerboy0545

This is the real way to play it i spent so long on this song it is a little confusing but listeb to the cd and youll get it. Here we go

verse

e--------------------------------]
B--------------------------------]
G----9/11-11/6-6b----------------]
D--9-9/11-11/6-6b-6-----6-6-6-7--]
A-0---------------6-4-4-4--5-----]
E--------------------------------]

Pre chorus

e---------------------------------------]
B-5-5-5-5-5-5-2-2-2-2-2-2-2-2-2-2-2-2-2-]
G-7-7-7-7-7-7-4-4-4-4-4-4-4-4-4-4-4-4-4-]
D-7-7-7-7-7-7-4-4-4-4-4-4-4-4-4-4-4-4-4-]
A-5-5-5-5-5-5-2-2-2-2-2-2---------------]
E---------------------------------------]

Chorus

e-----------------------]
B-----------------------]
G-----------------------]play 2 times
D--7-7-7----6-6---6-----]
A--7-7-7-4-4---7-7------]
E--5-5-5----------------]

Then play

e-------------------]
B-------------------]
G-------------------]
D--7-7-7--6-6-6-7-7-]
A--7-7-7-4---5----7-]
E--5-5-5----------5-]

then play

B---------------------]
G-------6-6-----------]
D-7-7-7-6-6-6-6-2-2-6-]
A-7-7-7-4-4-6-6-2-2-6-]
E-5-5-5-----4-4-0-0-4-]

Bridge (aproxamently at 2:10)

e----------------------------------------------0-]
B----------------------------------------------0-]
G----------------------------------------------4-]
D---0-0-----0-0-----0-0----2-2-----2-2-----7---7-]
A--7---7---7---7---5--5---2---2---2---2---5--5---]
E-5-----5-5-----5-3---3--0-----0-0-----0-3-------]
            
Hard to play? Try these video lessons and learn fast. | Correct




comments powered by Disqus
↑ Back to top | Tablatures and chords are parodies/interpretations of the original songs. You may use it for private study, scholarship, research or language learning purposes only