>
 >
Stellar - 3

Stellar - 3 Guitar Tabs

Incubus - Stellar - 3 chords, tabs, tablatures, lyrics

Guitar lessons | Add/correct | Request | Top 50 tabs Artists:  A B C D E F G H I J K L M N O P Q R S T U V W X Y Z 0-9

Stellar - 3 Guitar Tabs – Incubus

CD, Sheet music, Poster

Do you like Stellar - 3? Share with your friends now
TabsTabs v2Tabs v3
-----0----0--------|-----------------|-----0----0--------|-----------------|--
-----0----0------0-|-----------------|-----0----0------0-|-----------------|--
---9-9/11-11\9-6---|-----------------|---9-9/11-11\9-6---|-----------------|--
---9-9/11-11\9-6---|-6-----6-6-0-6-7-|---9-9/11-11\9-6---|-6-----6-6-----6-|--
-0--------0----0---|-----------------|-0--------0----0---|-----------7-7---|--
-------------------|---9-9-----------|-------------------|---9-9-----------|--
 Verse 1:                                                              (3x)   

-----0----0--------|-----------------|-----------------|-----------------|----
-----0----0------0-|-----------------|-----------------|-----------------|----
---9-9/11-11\9-6---|-----------------|-7---7---7-7-7-7-|---7-7---7-7-7-7-|-4--
---9-9/11-11\9-6---|-6-----6-6---6-7-|-7---7---7-7-7-7-|---7-7---7-7-7-7-|-4--
-0--------0----0---|-----------7-----|-5---5---5-5-5-5-|---5-5---5-5-5-5-|-2--
-------------------|---9-9-----------|-5---5---5-5-5-5-|---5-5---5-5-5-5-|-2--
                                       Bridge:                                

---------------|-----------------|--------------------------------------------
---------------|-----------------|--------------------------------------------
-4-4---4-4-4-4-|---4-4---4-4-4-4-|--------------------------------------------
-4-4---4-4-4-4-|---4-4---4-4-4-4-|--------------------------------------------
-2-2---2-2-2-2-|---2-2---2-2-2-2-|--------------------------------------------
-2-2---2-2-2-2-|---2-2---2-2-2-2-|--------------------------------------------
                                                                              

-0---0-0-0---0-0-|-----------------|-0---0-0-0---0-0-|-----------------|------
-0---0-0-0---0-0-|-----------------|-0---0-0-0---0-0-|-----------------|------
-2---2-2-2---2-2-|-----------------|-2---2-2-2---2-2-|-----------------|------
-2---2-2-2---2-2-|-----6-6-----6---|-2---2-2-2---2-2-|-----6-6-0-6h7---|------
-0---0-0-0---0-0-|---------7-7---0-|-0---0-0-0---0-0-|---------------0-|------
-----------------|-9-9-------------|-----------------|-9-9-------------|------
 Chorus:                                                           (2x)       

-0-0----0----------|-----------------|-0-0-0---0-------|---------------0-|----
-0-0----0----------|-----------------|-0-0-0---0-------|---------------0-|----
-9-9/11-11---------|-----------------|-9-9-9\6-6-------|---------------9-|----
-9-9/11-11---------|-----------------|-9-9-9\6-6-------|---------------9-|----
--------0----------|-----------------|-0-0-0-0-0-------|---------------0-|----
-------------------|-----------------|-----------------|-----------------|----
 Intro to verse 2                                                    (2x)     

-----0----0--------|-----------------|-----0----0--------|-----------------|--
-----0----0------0-|-----------------|-----0----0--------|-----------------|--
---9-9/11-11\9-6---|-----------------|---9-9/11-11\9-6---|-----------------|--
---9-9/11-11\9-6---|-6-----6-6-----6-|---9-9/11-11\9-6---|-6-----6-0-6h7---|--
-0-------------0---|-----------7-7---|-0-------------0---|---------------0-|--
-------------------|---9-9-----------|-------------------|---9-9-----------|--
                                                                       (4x)   

-----------------|-----------------|-----------------|-----------------|------
-----------------|-----------------|-----------------|-----------------|------
-7---7---7-7-7-7-|---7-7---7-7-7-7-|-4-4-4---4-4-4-4-|---4-4---4-4-4-4-|------
-7---7---7-7-7-7-|---7-7---7-7-7-7-|-4-4-4---4-4-4-4-|---4-4---4-4-4-4-|------
-5---5---5-5-5-5-|---5-5---5-5-5-5-|-2-2-2---2-2-2-2-|---2-2---2-2-2-2-|------
-5---5---5-5-5-5-|---5-5---5-5-5-5-|-2-2-2---2-2-2-2-|---2-2---2-2-2-2-|------
 Bridge:                                                                      

-0---0-0-0---0-0-|-----------------|-0---0-0-0---0-0-|-----------------|-0----
-0---0-0-0---0-0-|-----------------|-0---0-0-0---0-0-|-----------------|-0----
-2---2-2-2---2-2-|-----------------|-2---2-2-2---2-2-|-----------------|-2----
-2---2-2-2---2-2-|-----6-6-----6---|-2---2-2-2---2-2-|-----6-6-0-6h7---|-2----
-0---0-0-0---0-0-|---------7-7---0-|-0---0-0-0---0-0-|---------------0-|-0----
-----------------|-9-9-------------|-----------------|-9-9-------------|------
 Chorus:                                                           (2x)       

-0-0-0---0-0-|-----------------|-0---0-0-0---0-0-|---------------|------------
-0-0-0---0-0-|-----------------|-0---0-0-0---0-0-|---------------|------------
-2-2-2---2-2-|-6-6-------------|-2---2-2-2---2-2-|-6-6-----------|------------
-2-2-2---2-2-|-6-6-6-6-2-2-6-2-|-2---2-2-2---2-2-|-6-6-6-6-7-6-7-|-----0---0--
-0-0-0---0-0-|-4-4-6-6-2-2-6-2-|-0---0-0-0---0-0-|-4-4-6-6-7-6-5-|---7---7----
-------------|-4-4-4-4-0-0-4-0-|-----------------|-4-4-4-4-5-4-5-|-5----------
                                                                   Interlude: 

-------|-----------------|-----------------|-----------------|----------------
-------|-----------------|-----------------|-----------------|----------------
-------|-----------------|-----------------|-----------------|----------------
-------|-----0---0-------|-----0---0-------|---------0---0---|-----2---2------
-7-----|---7---7---7-----|---5-----5-------|-------5---5-5-2-|---2-2-----2----
---5---|-5-----------5-/-|-3-----3-3-------|-----3-------3-3-|-0-----------0--
                                                                              

---|-----------------|---------0-------|-------------0-0-|-----------------|--
---|-----------------|---------0-------|---------0---0-0-|-----------------|--
---|-----------------|---------0-------|-----2h4---4-4-4-|-----------------|--
---|-----2---2-------|-----0---0-------|-------------4-4-|-----0---0-------|--
---|---2-2-----2---2-|---5---5-5-------|-------------2-2-|---7---7---7-----|--
---|-0-----------0---|-3-------0-------|-----------------|-5-----------5---|--
                                                                              

-----------------|-----------------|-----------------|-----------------|------
-----------------|-----------------|-----------------|-----------------|------
-----------------|-----------------|-----------------|-----------------|------
-----0---0-------|-----0---0-------|---------0---0---|-----2---2-------|------
---7---7---7-7-/-|-5-5-----5-------|-------5---5-5-2-|---2-2-----2-----|---2--
-5-----------5-/-|-3-----3-3-------|-----3-------3-3-|-0-----------0---|-0----
                                                                              

-------------|---------0---0-0-|-0-0-0-0-0-0-0---|----------------------------
-------------|---------0---0-0-|-0-0-0-0-0-0-0---|----------------------------
-------------|---------0---0-0-|-0-0-0-0-0-0-0---|----------------------------
-2---2-------|-----0---0---0-0-|-0-0-0-0-0-0-0---|----------------------------
-2-----2---2-|---5---5-5---5-5-|-5-5-5-5-5-5-5---|----------------------------
---------0---|-3-------3---3-3-|-3-3-3-3-3-3-3-5-|----------------------------
                                                                              

-0---0-0-0---0-0-|-----------------|-0---0-0-0---0-0-|-----------------|-0----
-0---0-0-0---0-0-|-----------------|-0---0-0-0---0-0-|-----------------|-0----
-2---2-2-2---2-2-|-----------------|-2---2-2-2---2-2-|-----------------|-2----
-2---2-2-2---2-2-|-----6-6-----6---|-2---2-2-2---2-2-|-----6-6-0-6h7---|-2----
-0---0-0-0---0-0-|---------7-7---0-|-0---0-0-0---0-0-|---------------0-|-0----
-----------------|-9-9-------------|-----------------|-9-9-------------|------
 Outro:                                                            (2x)       

-0-0-0---0-0-|-----------------|-0---0-0-0---0-0-|-----------------|-0---0-0--
-0-0-0---0-0-|-----------------|-0---0-0-0---0-0-|-----------------|-0---0-0--
-2-2-2---2-2-|-6-6-------------|-2---2-2-2---2-2-|-6-6-------------|-2---2-2--
-2-2-2---2-2-|-6-6-6-6-2-2-6-2-|-2---2-2-2---2-2-|-6-6-6-6-7-6-7---|-2---2-2--
-0-0-0---0-0-|-4-4-6-6-2-2-6-2-|-0---0-0-0---0-0-|-4-4-6-6-7-6-7---|-0---0-0--
-------------|-4-4-4-4-0-0-4-0-|-----------------|-4-4-4-4-5-4-5---|----------
                                                                              

-0---0-0-|-----------------|-0---0-0-0---0-0-|-----------------|--------------
-0---0-0-|-----------------|-0---0-0-0---0-0-|-----------------|--------------
-2---2-2-|-6-6-------------|-2---2-2-2---2-2-|-6-6-------------|-6-6----------
-2---2-2-|-6-6-6-6-2-2-6-2-|-2---2-2-2---2-2-|-6-6-6-6-7-6-7---|-6-6-6-6-7-6--
-0---0-0-|-4-4-6-6-2-2-6-2-|-0---0-0-0---0-0-|-4-4-6-6-7-6-5---|-4-4-6-6-7-6--
---------|-4-4-4-4-0-0-4-0-|-----------------|-4-4-4-4-5-4-5---|-4-4-4-4-5-4--
                                                                              

-----|-0---------------|------------------------------------------------------
-----|-0---------------|------------------------------------------------------
-----|-2---------------|------------------------------------------------------
-7---|-2---------------|------------------------------------------------------
-7---|-0---------------|------------------------------------------------------
-5---|-----------------|------------------------------------------------------





Comments


Popular Incubus tabs & chords
Pardon Me 5 Bass Tabs
Priceless Bass Tabs
Anna Molly 1 Chords
Follow 1 Tabs
Love Hurts 1 Tabs
Talk Show On Mute 1 Tabs
Thieves Tabs
Under My Umbrella 4 Tabs
Wish You Were Here Intro Tabs
Quicksand Ukulele


Song lyrics



↑ Back to top | Tablatures and chords are parodies/interpretations of the original songs. You may use it for private study, scholarship, research or language learning purposes only
© 2014 AZChords.com Contact us | Privacy policy | DMCA | Add/correct tabs | Request tabs | Top 50 tabs