>
 >
Stellar - 2

Stellar - 2 Guitar Tabs

Incubus - Stellar - 2 chords, tabs, tablatures, lyrics

Guitar lessons | Add/correct | Request | Top 50 tabs Artists:  A B C D E F G H I J K L M N O P Q R S T U V W X Y Z 0-9

Stellar - 2 Guitar Tabs – Incubus

CD, Sheet music, Poster

Do you like Stellar - 2? Share with your friends now
TabsTabs v2Tabs v3
I tabbed this directly from the acoustic version recording. I included every 
nuance of Mike's playing. It's not perfect but it's very close. Let me know what 
you think!

Tuning: Standard [EADGBE]

Key:   /   = slide up
       \   = slide down
       X   = mute
       *   = let ring


VERSE 1

   "Meet me..."                                                       3x
 E|---------------------------------------------------------------------|
 B|---------------------------------------------------------------------|
 G|-----9/11-11\6-6-4---------------------9/11-11\6-6-4-----------------|
 D|---9-9/11-11\6-6-6-6-----6-6---6-7---9-9/11-11\6-6-6-6-----6-6-----6-|
 A|-0-------------------4-4-----5-----0-------------------4-4-----7-7---|
 E|---------------------------------------------------------------------|

   "We could start..."
 E|-------------------------------------------------------------------|
 B|-----------------------------------5---5---5-----5-----5---5---5---|
 G|-----9/11-11\6-6-4-----------------7---7---7-----7-----7---7---7---|
 D|---9-9/11-11\6-6-6-6-----6-6---6-7-7---7---7---7-7-----7---7---7---|
 A|-0-------------------4-4-----5-----5-5-5---5-5-5-5---5-5---5-5-5-5-|
 E|-----------------------------------5-5-5---5-5-5-5---5-5---5-5-5-5-|

 E|---------------------------------|
 B|-2---2---2-----2-----2---2---2-2-|
 G|-4---4---4-----4-----4---4---4-4-|
 D|-4---4---4---4-4-----4---4-4-4-4-|
 A|-2-2-2---2-2-2-2---2-2---2-2-2-2-|
 E|-2-2-2---2-2-2-2---2-2---2-2-2-2-|



CHORUS 1

   "How do you..."
 E|---0---0---0---0-------------------0---0---0---0-----------------|
 B|---0---0---0---0-------------------0---0---0---0-----------------|
 G|---2---2-2-2---2-------------------2---2-2-2---2-----------------|
 D|-X-2---2-2-2---2-0-----6-6-----6---2---2-2-2---2-2-----6-6---6-7-|
 A|-X-0-----0-------0-4-4-----7-7---0-0-----0-------0-4-4-----5-----|
 E|-X-0-----0-----------------------0-0-----0-------0---------------|

   "How do you..."
 E|---0---0---0---0-------------------0---0---0---0-----------------|
 B|---0---0---0---0-------------------0---0---0---0-----------------|
 G|---2---2-2-2---2-------------------2---2-2-2---2-----------------|
 D|-0-2---2-2-2---2-2-----6-6-----6---2---2-2-2---2-2-----6-6---6-7-|
 A|-0-0-----0-------0-4-4-----7-7---0-0-----0-------0-4-4-----5-----|
 E|-0-0-----0-------0---------------0-0-----0-------0---------------|



INTERLUDE

 E|---0-0----0*----------0---0*----------0----0*----------0---0*------|
 B|---0-0----0*----------0---0*----------0----0*----------0---0*------|
 G|-----9/11-11*-------9-9\6-6*--------9-9/11-11*-------9-9\6-6*------|
 D|-----9/11-11*-------9-9\6-6*--------9-9/11-11*-------9-9\6-6*------|
 A|-0---0----0*------0-0-0---0*------0-0-0----0*------0-0-0---0*------|
 E|-----0----0*----------0---0*----------0----0*----------0---0*------|



VERSE 2

   "Meet me..."                                                       4x
 E|---------------------------------------------------------------------|
 B|---------------------------------------------------------------------|
 G|---9-9/11-11\6-6-4---------------------9/11-11\6-6-4-----------------|
 D|---9-9/11-11\6-6-6-6-----6-6-----6---9-9/11-11\6-6-6-6-----6-6---6-7-|
 A|-0-------------------4-4-----7-7---0-------------------4-4-----5-----|
 E|---------------------------------------------------------------------|

   "Inside..."
 E|-----------------------------------------------------------------|
 B|-5---5---5-----5-----5---5---5---2---2---2-----2-----2---2---2-2-|
 G|-7---7---7-----7-----7---7---7---4---4---4-----4-----4---4---4-4-|
 D|-7---7---7---7-7-----7---7---7---4---4---4---4-4-----4---4-4-4-4-|
 A|-5-5-5---5-5-5-5---5-5---5-5-5-5-2-2-2---2-2-2-2---2-2---2-2-2-2-|
 E|-5-5-5---5-5-5-5---5-5---5-5-5-5-2-2-2---2-2-2-2---2-2---2-2-2-2-|



CHORUS 2

   "How do you..."
 E|---0---0---0---0-------------------0---0---0---0-----------------|
 B|---0---0---0---0-------------------0---0---0---0-----------------|
 G|---2---2-2-2---2-------------------2---2-2-2---2-----------------|
 D|-X-2---2-2-2---2-2-----6-6-----6---2---2-2-2---2-------6-6---6-7-|
 A|-X-0-----0-------0-4-4-----7-7---0-0-----0-------0-4-4-----5-----|
 E|-X-0-----0-------0---------------0-0-----0-----------------------|

   "How do you..."
 E|---0---0---0---0-------------------0---0---0---0-----------------|
 B|---0---0---0---0-------------------0---0---0---0-----------------|
 G|---2---2-2-2---2-------------------2---2-2-2---2-----------------|
 D|-0-2---2-2-2---2-2-----6-6-----6---2---2-2-2---2-2-----6-6---6-7-|
 A|-0-0-----0-------0-4-4-----7-7---0-0-----0-------0-4-4-----5-----|
 E|-0-0-----0-------0---------------0-0-----0-------0---------------|

   "How do you..."
 E|---0---0---0---0-------------------0---0---0---0-----------------|
 B|---0---0---0---0-------------------0---0---0---0-----------------|
 G|---2---2-2-2---2-2-6-6-------------2---2-2-2---2-2-6-6-----------|
 D|---2---2-2-2---2-2-6-6-6-6-2-2-6---2---2-2-2---2-2-6-6-6-6-0-6-7-|
 A|-0-0-----0-------0-4-4-6-6-2-2-6-0-0-----0-------0-4-4-6-6-0-6-7-|
 E|-0-0-----0-------0-4-4-4-4-0-0-4-0-0-----0-------0-4-4-4-4-0-4-5-|



BRIDGE

   "...do..."
 E|-----------------------------------------------------------------|
 B|-----------------------------------------------------------------|
 G|-----------------------------------------------------------------|
 D|-----0---0-----------0---0-----------0---0---------------0---0-0-|
 A|---7-------7-------7-------7-------5-----5-----------------5-5-5-|
 E|-5-----------5---5-----------5---3-------------------3-3-----3-3-|

   "Aaooooow..."
 E|-----------------------------------------0-----------------------|
 B|-----------------------------------------0---------------0---0-0-|
 G|-----------------------------------------0-------------0---0-0-0-|
 D|-----2---2-----------2---2-----------0---0-------------0-----0-0-|
 A|---2-------2-------2-------2-------5-----5-------------5-----5-5-|
 E|-0-----------0---0-----------0---3-----3-3-----------------------|

   "You are stellar..."
 E|-----------------------------------------------------------------|
 B|-----------------------------------------------------------------|
 G|-----------------------------------------0---------------0-------|
 D|-----0---0-----------0---0-----------0---0-----------------0-0-0-|
 A|---7-------7-------7---7---7-7\5---5-----5-----------5-5-----5-5-|
 E|-5-----------5---5-----------5\3-3---------------------------3-3-|

   "You are stellar..."
 E|-----------------------------------------0---0-0-0-0-0-0-0-0-0-0-|
 B|-----------------------------------------0---0-0-0-0-0-0-0-0-0-0-|
 G|-----------------------------------------0---0-0-0-0-0-0-0-0-0-0-|
 D|-----2---2-----------2---2-----------0---0---0-0-0-0-0-0-0-0-0-0-|
 A|---2-------2-------2-------2-------5-----5-------5-5-5-5-5-5-5-5-|
 E|-0-----------0---0-----------0---3-------3-------3---3---3-3-3-3-|



CHORUS 3/ENDING

   "How do you..."
 E|---0---0---0---0-------------------0---0---0---0-----------------|
 B|---0---0---0---0-------------------0---0---0---0-----------------|
 G|---2---2-2-2---2-------------------2---2-2-2---2-----------------|
 D|---2---2-2-2---2-2-----6-6-----6---2---2-2-2---2-2-----6-6---6-7-|
 A|-0-0-----0-------0-4-4-----7-7---0-0-----0-------0-4-4-----5-----|
 E|-0-0-----0-------0---------------0-0-----0-------0---------------|

   "How do you..."                                                2x
 E|---0---0---0---0-------------------0---0---0---0-----------------|
 B|---0---0---0---0-------------------0---0---0---0-----------------|
 G|---2---2-2-2---2-2-6-6-------------2---2-2-2---2-2-6-6-----------|
 D|---2---2-2-2---2-2-6-6-6-6-2-2-6---2---2-2-2---2-2-6-6-6-6-0-6-7-|
 A|-0-0-----0-------0-4-4-6-6-2-2-6-0-0-----0-------0-4-4-6-6-0-6-7-|
 E|-0-0-----0-------0-4-4-4-4-0-0-4-0-0-----0-------0-4-4-4-4-0-4-5-|

 E|-----------------0*-|
 B|-----------------0*-|
 G|-6-6-------------2*-|
 D|-6-6-6-6-7-6-7---2*-|
 A|-4-4-6-6-7-6-7---0*-|
 E|-4-4-4-4-5-4-5---0*-|





Comments


Popular Incubus tabs & chords
Deep Inside Bass Tabs
Golden Bass Tabs
Black Heart Inertia Chords
Crowded Elevator 3 Tabs
Drive 2 Tabs
Everything Is Dead Tabs
I Miss You 1 Tabs
Look Alive Tabs
Sink Beneath The Line Tabs
Smokin Da Herb Tabs


Song lyrics



↑ Back to top | Tablatures and chords are parodies/interpretations of the original songs. You may use it for private study, scholarship, research or language learning purposes only
© 2014 AZChords.com Contact us | Privacy policy | DMCA | Add/correct tabs | Request tabs | Top 50 tabs