» » »

Southern Girl Tabs (ver.4)

Artists:  A B C D E F G H I J K L M N O P Q R S T U V W X Y Z # 

Southern Girl Tabs (ver.4)

Incubus
Rating:
0/5 (0 votes)

Hard to play? Try these video lessons and learn fast.
                -------------------------------------------------------------------------------
                                                     SOUTHERN GIRL - Incubus
-------------------------------------------------------------------------------

Tuning: Standard

Solo

e----------------------------------------5---5----5----5-8---|
B--------------------------------5---5-8---8----8----8-----5-|
G-5/7-5--7-5/7---------------5-7---7-------------------------|
D--------------5-5\2--2--2/----------------------------------|
A------------------------------------------------------------|
E------------------------------------------------------------|

e------5---8-------------------------------------------------|
B--5-8---5---5-----------------------------------------------|
G---------------7-5-4-4/5\4------5---7-5---5---------7-7-----|
D----------------------------5-7---7-----7---7-7-5-5---------|
A--------------------------------------------------------7-7-|
E------------------------------------------------------------|

| ^  bend string
| /  slide up
| \  slide down
| h  hammer-on
| p  pull-off
| ~  vibrato
| +  harmonic
| x  Mute note
===============================================================================
            
Hard to play? Try these video lessons and learn fast. | Correct




comments powered by Disqus
↑ Back to top | Tablatures and chords are parodies/interpretations of the original songs. You may use it for private study, scholarship, research or language learning purposes only