» » »

Sink Beneath The Line Tabs (ver.2)

Artists:  A B C D E F G H I J K L M N O P Q R S T U V W X Y Z # 

Sink Beneath The Line Tabs (ver.2)

Incubus
Rating:
0/5 (0 votes)

Hard to play? Try these video lessons and learn fast.
                h - hammer on
/ - slide up
( ) - implied notes (ghost notes)



e------------------------------------------------------------
b------------------------------------------------------------
g-------------------------5---5-4-3--------------------------
d------5---5-4-3-1------2---2-------0h3h5--------------------
a----2---2-----------/3--------------------------------------
e-/3---------------------------------------------------------  x 2



e------15-15-15----------15-15-----20-20-20------------------
b-(12)-------------------------(17)--------------------------
g--12-----------12-12-12--------17----------17-16-15---------
d------------------------------------------------------15h17-
a---------------------------------------------------17-------
e------------------------------------------------------------


"the band that will kill your cat"
            
Hard to play? Try these video lessons and learn fast. | Correct




comments powered by Disqus
↑ Back to top | Tablatures and chords are parodies/interpretations of the original songs. You may use it for private study, scholarship, research or language learning purposes only