» » »

Sick Sad Little World Tabs (ver.2)

Artists:  A B C D E F G H I J K L M N O P Q R S T U V W X Y Z # 

Sick Sad Little World Tabs (ver.2)

Incubus
Rating:
0/5 (0 votes)

Hard to play? Try these video lessons and learn fast.
                Tuning: Standard (Low to high EADGBE)


Intro Riff:                                               
E||-------------------------------------------------------|
B||------------------------------------------0--0-0-------|
G||------------------------------------------4--4-4-------|
D||------------------4----------2------------2--2-2--x-x--|
A||------4---4-------------0-2-4---4-2-0-2-4-4--4-4--x-x--|
E||--0-4---4---4-0-4---4-0--------------------------------|
                                                               
Ending 1			Ending 2
E||--(0)(0)(0)-----------||------------------|
B||---0--0--0------------||------------------|
G||---1--1--1------------||------------------|
D||---2--2--2-----4-4-4--||--4-4-4----7-7-7--|
A||---0--0--0-----4-4-4--||--4-4-4----7-7-7--|
E||------------00-2-2-2--||--2-2-2-00-5-5-5--|


Verse: tremolo picking for each note
E||-----|-------|-----|---------|---------|
B||-----|-------|-----|---------|---------|
G||-----|-------|-----|-----6---|---------|
D||-----|-------|-----|---------|------6--|
A||--4--|--4-0--|-----|---------|---------|
E||-----|-------|--2--|--0------|--0------|
			ending 1  ending 2

Bridge Riff:                                       
E||----------------------------------|------0~-------|
B||----------------------------------|------0~-------|
G||------4---4-------4---4-------4---|------2~-------|
D||----------------------------------|------2~-------|
A||----4---4---4---4---4---4---4-----|--4---0~-------|
E||--0-----------0-----------0-------|---------------|
~ = wah-wah
            
Hard to play? Try these video lessons and learn fast. | Correct




comments powered by Disqus
↑ Back to top | Tablatures and chords are parodies/interpretations of the original songs. You may use it for private study, scholarship, research or language learning purposes only