>
 >
Rogues

Rogues Guitar Tabs

Incubus - Rogues chords, tabs, tablatures, lyrics

Guitar lessons | Add/correct | Request | Top 50 tabs Artists:  A B C D E F G H I J K L M N O P Q R S T U V W X Y Z 0-9

Rogues Guitar Tabs – Incubus

CD, Sheet music, Poster

Do you like Rogues? Share with your friends now
Bass TabsTabs
Incubus 
Standard Tuning

Updated  10.6.08   

Intro                                                                   
||----------------------------------|-------------------------------------|
||o---------------------------------|-------------------------------------|
||----------------------------------|-------------------------------------|
||------0------0------0-----0-----0-|------0------0-------0------0------0-|
||o---0------0-----0------0-----0---|----0------0------0-------0------0---|
||--2-----/8-----8------8-----8-----|-12----/14-----14------14-----14-----|

|----------------------------------|-------------------------------------||
|----------------------------------|------------------------------------o||
|----------------------------------|-------------------------------------||
|-------0------0-----0-----0-----0-|------0------0------0------0------0--||
|-----0------0-----0-----0-----0---|----0------0------0------0------0---o||
|-0-2-----/8-----8-----8-----8-----|-12-----12-----10-----10-----10------||

Pre-Verse                                                           
||-------------------|---------------------|
||o------------------|---------------------|
||-------------------|---------------------|
||-------------------|-----------------7---|
||o-----------5------|-----------5-x-x-----|
||--x-7-7-5h7----5-5-|-7-7-5-5-7---------5-|

|----------------|-----------------------|
|----------------|-----------------------|
|----------------|-----------------------|
|----------------|-----------------7-----|
|---------5------|-----------5-x-x-------|
|-7-7-5h7----5-5-|-7-7-5-5-7---------5---|

|----------------|-----------------------|
|----------------|-----------------------|
|----------------|-----------------------|
|----------------|-----------------7-----|
|---------5------|-----------5-x-x-------|
|-7-7-5h7----5-5-|-7-7-5-5-7---------5---|

|----------------------------------------------------||
|---------------------------------------------------o||
|----------------------------------------------------||
|----------------------------------------------------||
|---------55-5^6-6-6-6-6-6-6-6-6-6-6-6-6-6-6^r5-5--o||
|-7-7-5h7--------------------------------------------||
                {{((((((Bend to Note)))))))}}                              
   Verse
||------------------|---------------------7-|
||o-9--9-x-x-9-9--8-|-(8)-8-8-x-x-8-8-x-x-7-|
||--7--7-x-x-7-7--7-|-(7)-7-7-x-x-7-7-x-x-7-|
||--9--9-x-x-9-9--9-|-(9)-9-9-x-x-9-9-x-x-9-|
||o-----------------|---------------------9-|
||------------------|---------------------7-|

|-(7)-7-7-x-x-7-7-7-7-|-(7)-7-7-x-x-7-7-7-----|
|-(7)-7-7-x-x-7-7-7-7-|-(7)-7-7-x-x-7-7-7--9--|
|-(7)-7-7-x-x-7-7-7-7-|-(7)-7-7-x-x-7-7-7--7--|
|-(9)-9-9-x-x-9-9-9-9-|-(9)-9-9-x-x-9-9-9--9--|
|-(9)-9-9-x-x-9-9-9-9-|-(9)-9-9-x-x-9-9-9-----|
|-(7)-7-7-x-x-7-7-7-7-|-(7)-7-7-x-x-7-7-7-----|

|--------------------|-----------------------7-|
|-(9)-9-9-x-x-9-9--8-|-(8)-8-8-x-x-8-8-8-x-x-7-|
|-(7)-7-7-x-x-7-7--7-|-(7)-7-7-x-x-7-7-7-x-x-7-|
|-(9)-9-9-x-x-9-9--9-|-(9)-9-9-x-x-9-9-9-x-x-9-|
|--------------------|-----------------------9-|
|--------------------|-----------------------7-|

|-(7)-7-7-x-x-7-7-7-7-|-(7)-7-7-x-x-7-7-7-----|
|-(7)-7-7-x-x-7-7-7-7-|-(7)-7-7-x-x-7-7-7--9--|
|-(7)-7-7-x-x-7-7-7-7-|-(7)-7-7-x-x-7-7-7--7--|
|-(9)-9-9-x-x-9-9-9-9-|-(9)-9-9-x-x-9-9-9--9--|
|-(9)-9-9-x-x-9-9-9-9-|-(9)-9-9-x-x-9-9-9-----|
|-(7)-7-7-x-x-7-7-7-7-|-(7)-7-7-x-x-7-7-7-----|

|--------------------|-----------------------7-|
|-(9)-9-9-x-x-9-9--8-|-(8)-8-8-x-x-8-8-8-x-x-7-|
|-(7)-7-7-x-x-7-7--7-|-(7)-7-7-x-x-7-7-7-x-x-7-|
|-(9)-9-9-x-x-9-x--9-|-(9)-9-9-x-x-9-9-9-x-x-9-|
|--------------------|-----------------------9-|
|--------------------|-----------------------7-|

|-(7)-7-7-x-x-7-7-7-----|---------------------------2-|
|-(7)-7-7-x-x-7-7-7-----|---------------------------2-|
|-(7)-7-7-x-x-7-7-7--10-|-(10)-10-10-x-x-10-10-10-x-3-|
|-(9)-9-9-x-x-9-9-9---9-|--(9)--9--9-x-x--9--9--9-x-4-|
|-(9)-9-9-x-x-9-9-9--10-|-(10)-10-10-x-x-10-10-10-x-4-|
|-(7)-7-7-x-x-7-7-7-----|---------------------------2-|

|-(2)-2-2-x-x-2-2-2-x-2-|-(2)-2-2-x-x-2-2-2-x-6-|
|-(2)-2-2-x-x-2-2-2-x-2-|-(2)-2-2-x-x-2-2-2-x-7-|
|-(3)-3-3-x-x-3-3-3-x-3-|-(3)-3-3-x-x-3-3-3-x-6-|
|-(4)-4-4-x-x-4-4-4-x-4-|-(4)-4-4-x-x-4-4-4-x-8-|
|-(4)-4-4-x-x-4-4-4-x-4-|-(4)-4-4-x-x-4-4-4-x-6-|
|-(2)-2-2-x-x-2-2-2-x-0-|-(0)-0-0-x-x-0-0-0-x---|

|-(6)-6-6-6-6-6-6-6-----|--------------------||
|-(7)-7-7-7-7-7-7-7---7-|-(7)-7-7-7-7-7-7----||
|-(6)-6-6-6-6-6-6-6-x-7-|-(7)-7-7-7-7-7-7----||
|-(8)-8-8-8-8-8-8-8-x-7-|-(7)-7-7-7-7-7-7--9-||
|-(6)-6-6-6-6-6-6-6-x-5-|-(5)-5-5-5-5-5-5-10-||
|-----------------------|--------------------||

Chorus                                            
|----------------------------|-----------------------|
|----------------------------|-----------------------|
|----------------------------|--------------------11-|
|--(9)--9--9--9--9--9-11-x-9-|-(9)-9-9-9-9-9-11-x-12-|
|-(10)-10-10-10-10-10-10-x-9-|-(9)-9-9-9-9-9--9-x-12-|
|----------------------------|------------------x-10-|

|-------------------------|--------------------------|
|-------------------------|--------------------------|
|-(11)-11---11-11-11-x-11-|-(11)-11---11-11-11-x-----|
|-(12)-12-x--x--x--x-x-12-|-(12)-12-x--x--x--x-x--9--|
|-(12)-12-x--9--9--9-x-12-|-(12)-12-x--9--9--9-x-10--|
|-(10)-10-x------------10-|-(10)-10-x----------------|

|----------------------------|-----------------------|
|----------------------------|-----------------------|
|----------------------------|--------------------11-|
|--(9)--9--9--9--9--9-11-x-9-|-(9)-9-9-9-9-9-11-x-12-|
|-(10)-10-10-10-10-10-10-x-9-|-(9)-9-9-9-9-9--9-x-12-|
|----------------------------|------------------x-10-|

|-------------------------|--------------------------|
|-------------------------|--------------------------|
|-(11)-11---11-11-11-x-11-|-(11)-11---11-11-11-x-----|
|-(12)-12-x--x--x--x-x-12-|-(12)-12-x--x--x--x-x--9--|
|-(12)-12-x--9--9--9-x-12-|-(12)-12-x--9--9--9-x-10--|
|-(10)-10-x------------10-|-(10)-10-x----------------|

|----------------------------|-----------------------|
|----------------------------|-----------------------|
|----------------------------|--------------------11-|
|--(9)--9--9--9--9--9-11-x-9-|-(9)-9-9-9-9-9-11-x-12-|
|-(10)-10-10-10-10-10-10-x-9-|-(9)-9-9-9-9-9--9-x-12-|
|----------------------------|------------------x-10-|

|-------------------------|--------------------------|
|-------------------------|--------------------------|
|-(11)-11---11-11-11-x-11-|-(11)-11---11-11-11-x-----|
|-(12)-12-x--x--x--x-x-12-|-(12)-12-x--x--x--x-x--9--|
|-(12)-12-x--9--9--9-x-12-|-(12)-12-x--9--9--9-x-10--|
|-(10)-10-x------------10-|-(10)-10-x----------------|

|----------------------------|-----------------------|
|----------------------------|-----------------------|
|----------------------------|--------------------11-|
|--(9)--9--9--9--9--9-11-x-9-|-(9)-9-9-9-9-9-11-x-12-|
|-(10)-10-10-10-10-10-10-x-9-|-(9)-9-9-9-9-9--9-x-12-|
|----------------------------|------------------x-10-|

|-------------------------||-------------------------|
|-------------------------||-------------------------|
|-(11)-11---11-11-11-x-11-||-(11)-11---11-11-11-x-11-|
|-(12)-12-x--x--x--x-x-12-||-(12)-12-x--x--x--x-x-12-|
|-(12)-12-x--9--9--9-x-12-||-(12)-12-x--9--9--9-x-12-|
|-(10)-10-x------------10-||-(10)-10-x------------10-|

|-------------------------|--------------------------||
|-------------------------|--------------------------||
|-(11)-11---11-11-11-x-11-|-(11)-11---11-11-11-11-11-||
|-(12)-12-x--x--x--x-x-12-|-(12)-12-x--x--x--x--x--x-||
|-(12)-12-x--9--9--9-x-12-|-(12)-12-x--9--9--9--9--9-||
|-(10)-10-x------------10-|-(10)-10-x----------------||


{Pre-Verse}
{Verse}
{Chorus}


Solo
|-----------------------------------9-9b10br--7--9-----|
|-----7--9--9b10br--7--9--7-------x-----------------0--|
|------------------------------7--x--------------------|
|--9------------------------9--------------------------|
|------------------------------------------------------|
|------------------------------------------------------|

|--------------------------------------10-10--10br-------|
|-------9--9b10br--------9--------9--x----------------0--|
|------------------7-----------7-----x-------------------|
|--8------------------8-----8----------------------------|
|--------------------------------------------------------|
|--------------------------------------------------------|

|--15b----15----15-15--15-----15-15--|
|--15b----15----15-15--15--15-15-15--|
|-------------0---------------16-16--|
|------------------------------------|
|------------------------------------|
|------------------------------------|

|-15--15b-15-15-15-15-15-15-15-15-15---|
|-15--15b-15-15-15-15-15-15-15-15-15-0-|
|-16---------------------------------0-|
|--------------------------------------|
|--------------------------------------|
|--------------------------------------|

|---------------------------9---------9------9------x-|
|-------------8------8---------8----------------8---x-|
|----7--9/10-----10-----10--------10-----10--------10-|
|-8---------------------------------------------------|
|-----------------------------------------------------|
|-----------------------------------------------------|

|-----------------------|----------------------|
|--15---------------15--|-----------15---------|
|-----------------------|----------------------|
|----------12-----------|---12------------12---|
|-----------------------|----------------------|
|-----------------------|----------------------|

|--16---------------16--|-----------16---------|
|-----------------------|----------------------|
|-----------------------|----------------------|
|----------12-----------|---12------------12---|
|-----------------------|----------------------|
|-----------------------|----------------------|

|-14--14--14--14--14--14--14--14--|--13--13--12--12--11--11--0-|
|---------------------------------|--------------------------0-|
|---------------------------------|----------------------------|
|---------------------------------|----------------------------|
|---------------------------------|----------------------------|
|---------------------------------|----------------------------|

|--------------15--15--16--16--15--|---------------------------|
|--15--15--15--15--15--15--15--15--|---------------------------|
|--13--13--13--13--13--13--13--13--|---------------------------|
|----------12----------------------|--------0---------0--------|
|----------------------------------|--------0---------0--------|
|----------------------------------|--3b^---0--3b^----0--3b^---|

|--2-2-2-2-2-2-2-2-2-2-2-2-2-2-2-2-|
|--3-3-3-3-3-3-3-3-3-3-3-3-3-3-3-3-|
|--4-4-4-4-4-4-4-4-4-4-4-4-4-4-4-4-|
|----------------------------------|
|----------------------------------|
|----------------------------------|

Chorus                                            
|----------------------------|-----------------------|
|----------------------------|-----------------------|
|----------------------------|--------------------11-|
|--(9)--9--9--9--9--9-11-x-9-|-(9)-9-9-9-9-9-11-x-12-|
|-(10)-10-10-10-10-10-10-x-9-|-(9)-9-9-9-9-9--9-x-12-|
|----------------------------|------------------x-10-|

|-------------------------|--------------------------|
|-------------------------|--------------------------|
|-(11)-11---11-11-11-x-11-|-(11)-11---11-11-11-x-----|
|-(12)-12-x--x--x--x-x-12-|-(12)-12-x--x--x--x-x--9--|
|-(12)-12-x--9--9--9-x-12-|-(12)-12-x--9--9--9-x-10--|
|-(10)-10-x------------10-|-(10)-10-x----------------|

|----------------------------|-----------------------|
|----------------------------|-----------------------|
|----------------------------|--------------------11-|
|--(9)--9--9--9--9--9-11-x-9-|-(9)-9-9-9-9-9-11-x-12-|
|-(10)-10-10-10-10-10-10-x-9-|-(9)-9-9-9-9-9--9-x-12-|
|----------------------------|------------------x-10-|

|-------------------------|--------------------------|
|-------------------------|--------------------------|
|-(11)-11---11-11-11-x-11-|-(11)-11---11-11-11-x-----|
|-(12)-12-x--x--x--x-x-12-|-(12)-12-x--x--x--x-x--9--|
|-(12)-12-x--9--9--9-x-12-|-(12)-12-x--9--9--9-x-10--|
|-(10)-10-x------------10-|-(10)-10-x----------------|

|----------------------------|-----------------------|
|----------------------------|-----------------------|
|----------------------------|--------------------11-|
|--(9)--9--9--9--9--9-11-x-9-|-(9)-9-9-9-9-9-11-x-12-|
|-(10)-10-10-10-10-10-10-x-9-|-(9)-9-9-9-9-9--9-x-12-|
|----------------------------|------------------x-10-|

|-------------------------|--------------------------|
|-------------------------|--------------------------|
|-(11)-11---11-11-11-x-11-|-(11)-11---11-11-11-x-----|
|-(12)-12-x--x--x--x-x-12-|-(12)-12-x--x--x--x-x--9--|
|-(12)-12-x--9--9--9-x-12-|-(12)-12-x--9--9--9-x-10--|
|-(10)-10-x------------10-|-(10)-10-x----------------|

|----------------------------|-----------------------|
|----------------------------|-----------------------|
|----------------------------|--------------------11-|
|--(9)--9--9--9--9--9-11-x-9-|-(9)-9-9-9-9-9-11-x-12-|
|-(10)-10-10-10-10-10-10-x-9-|-(9)-9-9-9-9-9--9-x-12-|
|----------------------------|------------------x-10-|

|-------------------------||-------------------------|
|-------------------------||-------------------------|
|-(11)-11---11-11-11-x-11-||-(11)-11---11-11-11-x-11-|
|-(12)-12-x--x--x--x-x-12-||-(12)-12-x--x--x--x-x-12-|
|-(12)-12-x--9--9--9-x-12-||-(12)-12-x--9--9--9-x-12-|
|-(10)-10-x------------10-||-(10)-10-x------------10-|

|-------------------------|--------------------------||
|-------------------------|--------------------------||
|-(11)-11---11-11-11-x-11-|-(11)-11---11-11-11-11-11-||
|-(12)-12-x--x--x--x-x-12-|-(12)-12-x--x--x--x--x--x-||
|-(12)-12-x--9--9--9-x-12-|-(12)-12-x--9--9--9--9--9-||
|-(10)-10-x------------10-|-(10)-10-x----------------||





Comments


Popular Incubus tabs & chords
Follow Bass Tabs
Glass 2 Bass Tabs
Out From Under Bass Tabs
Agoraphobia 1 Tabs
Defiance 1 Tabs
Dig Tabs
New Skin 1 Tabs
Stellar Tabs
Wish You Were Here 6 Tabs
Like A Virgin Ukulele


Song lyrics



↑ Back to top | Tablatures and chords are parodies/interpretations of the original songs. You may use it for private study, scholarship, research or language learning purposes only
© 2014 AZChords.com Contact us | Privacy policy | DMCA | Add/correct tabs | Request tabs | Top 50 tabs