>
 >
Rebel Girls

Rebel Girls Chords

Incubus - Rebel Girls chords, tabs, tablatures, lyrics

Guitar lessons | Add/correct | Request | Top 50 tabs Artists:  A B C D E F G H I J K L M N O P Q R S T U V W X Y Z 0-9

Rebel Girls Chords – Incubus

CD, Sheet music, Poster

Do you like Rebel Girls? Share with your friends now
ChordsUkulele
-----------------------------------------------------------------------------
-----------------------------------------------------------------------------

Group: Incubus
Tuning: standard


Baby we can make it to the outer reaches of inner space create
castles, monuments to flesh
a triangled Valhalla on the side of the moon...


[Chorus]
               Bm     G     F     Am
e|--------------2-----3-----1-----5------|
B|--------------3-----3-----1-----5------|
G|--------------4-----4-----2-----5------|
D|--------------4-----5-----3-----7------|
A|-------0h2----2-----5-----3-----7------|
E|--0h2---------x-----3-----1-----5------|


Bm         G                F
Raven-eyed, those Valkyries
F                  Am              Bm
Rebel girls, rebel girls tearing it up
Bm             G         F    Am   Bm
Paying to mind to the divide..........
Bm        G             F
Raven eyes all over me
F                  Am                Bm
Rebel girls, rebel girls filling my cup
Bm         G           F     Am    
Them and I need to collide............


       Bm     G     F    Cm
e|------2-----3-----8-----8------|
B|------3-----3-----10----8------|
G|------4-----4-----10----8------|
D|------4-----5-----10----10-----|
A|------2-----5-----8-----10-----|
E|------x-----3-----x-----8------|

Bm  G    F                      Cm
Do it so   [rebel girls, rebel girls tearing it up]
Bm    G        F        
No one will know
Bm G        F                     Cm   
Rarest pearl [rebel girls, rebel girls filling my cup]
Bm G       F
Rebel girls


Waiting at the gates it's blue-eyed and blonde
With black-eyed and brown
We'll make tangible inner space reflect the
Never-quiet rebellion on the side of the moon

----------------------------------------------------

This is my first tab. Please let me know if there's anything
I can fix.


************************************

| /   slide up
| \   slide down
| h   hammer-on
| p   pull-off
| ~   vibrato
| +   harmonic
| x   Mute note
| b   Bend
| pb  Pre-bend
| br  Bend release
| pbr Pre-bend release
| brb Bend release bend

************************************





Comments


Popular Incubus tabs & chords
Are You In 3 Bass Tabs
Talk Shows On Mute 2 Bass Tabs
Love Hurts 2 Chords
Pardon Me 1 Drum Tabs
11 Am (Intro) Tabs
Battlestar Scralatchtica Tabs
Dig Tabs
Stellar 5 Tabs
Warning Tabs
When It Comes 3 Tabs


Song lyrics



↑ Back to top | Tablatures and chords are parodies/interpretations of the original songs. You may use it for private study, scholarship, research or language learning purposes only
© 2014 AZChords.com Contact us | Privacy policy | DMCA | Add/correct tabs | Request tabs | Top 50 tabs