>
 >
Privilege 2

Privilege 2 Guitar Tabs

Incubus - Privilege 2 chords, tabs, tablatures, lyrics

Guitar lessons | Add/correct | Request | Top 50 tabs Artists:  A B C D E F G H I J K L M N O P Q R S T U V W X Y Z 0-9

Privilege 2 Guitar Tabs – Incubus

CD, Sheet music, Poster

Do you like Privilege 2? Share with your friends now
Bass TabsTabsTabs v2Tabs v3Tabs v4Tabs v5Tabs v6Tabs v7



slide    : /


INTRO: (Some of the x sounds, could be heard as the note of the next chord)
Clean
e|--------------------------------------------------------------------
B|-------------------------------------------------------------7-7-7--
G|---------6---------------------------------6------------------------
D|-7-5-x-x-6-7-x-x-7-x-5-x-x-4-5-x-x-7-5-x-x-6-7-x-x-7-x-5-x-x-4-4-4--
A|-7-5-x-x-4-7-x-x-7-x-5-x-x-4-5-x-x-7-5-x-x-4-7-x-x-7-x-5-x-x--------
E|-5-3-x-x---5-x-x-5---3-x-x-2-3-x-x-5-3-x-x---5-x-x-5-x-3-x-x--------

							        Dist.
e|--------------------------------------------------------------------
B|--------------------------------------------------------------x-x---
G|---------6---------------------------------6------------------x-x---
D|-7-5-x-x-6-7-x-x-7-x-5-x-x-4-5-x-x-7-5-x-x-6-7-x-x-7-x-5-x-x--x-x---
A|-7-5-x-x-4-7-x-x-7-x-5-x-x-4-5-x-x-7-5-x-x-4-7-x-x-7-x-5-x-x--x-x---
E|-5-3-x-x---5-x-x-5---3-x-x-2-3-x-x-5-3-x-x---5-x-x-5-x-3-x-x--x-x---

With Distortion
e|--------------------------------------------------------------------
B|-------------------------------------------------7------------------
G|-------6------------------------6--------------------------6--------
D|-7-5---6-7---7--5---4-5---7-5---6-7---7--x-x-x-x-4---7-5---6-7---7--
A|-7-5---4-7---7--5---4-5---7-5---4-7---7--x-x-x-x-----7-5---4-7---7--
E|-5-3-----5---5--3---2-3---5-3-----5---5--x-x-x-x-----5-3-----5---5--


e|--------------------------------------------------------------------
B|------------------------------x-x-----------------------------------
G|-----------------6------------x-x-----------------------------------
D|-5---4-5---7-5---6-7---7--5---x-x-----------------------------------
A|-5---4-5---7-5---4-7---7--3---x-x-----------------------------------
E|-3---2-3---5-3-----5---5--3---x-x-----------------------------------

Repeat these last two lines, ending in 
e|---------------      						     
B|---------------
G|---------------
D|-5-5-5-5-5-5-5-
A|-5-5-5-5-5-5-5-
E|-3-3-3-3-3-3-3-

VERSE:

With distortion
e|--------------------------------------------
B|--------------------------------------------
G|-------------------------------------------- x4
D|--------------------------------------------
A|-7-5---x-7---5-----7-7---5---x-7---5----6/8-
E|-5-3---x-5---3-----5-5---3---x-5---3----4/6-


PRE VERSE:

e|---------            e|-----
B|-9-9-9-9-            B|-x-x-
G|-6-6-6-6- x7   then  G|-x-x-
D|---------            D|-x-x-
A|---------            A|-x-x-
E|---------            E|-x-x-


CHORUS: 

e|--------------------------------------------------------------------
B|--------------------------------------------------------------------
G|--------6-----------------7-7-7-7-7--5-5-5-5-5---------6------------
D|-7-5----6-7---7--5--4-5---7-7-7-7-7--5-5-5-5-5--7-5----6-7---7--5---
A|-7-5----4-7---7--5--4-5---5-5-5-5-5--3-3-3-3-3--7-5----4-7---7--5---
E|-5-3------5---5--3--2-3---5-5-5-5-5--3-3-3-3-3--5-3------5---5--3---

e|----------------------
B|----------------------
G|------------------3---  x2
D|-4-5---3---x-3----3---
A|-4-5---3---x-3----1---
E|-2-3---1---x-1----1---

Then repeat half the intro


VERSE


PRE VERSE


CHORUS


BRIDGE(Guitar plays nothing)


CHORUS x2





Comments


Popular Incubus tabs & chords
Beware Criminal Bass Tabs
Familiar 3 Bass Tabs
Dig 1 Chords
Echo 1 Tabs
Mexico 7 Tabs
Red Kipper Sandles Tabs
Summer Romance Intro Tabs
Talk Show On Mute 3 Tabs
Talk Shows On Mute Tabs
The Warmth 3 Tabs


Song lyrics



↑ Back to top | Tablatures and chords are parodies/interpretations of the original songs. You may use it for private study, scholarship, research or language learning purposes only
© 2014 AZChords.com Contact us | Privacy policy | DMCA | Add/correct tabs | Request tabs | Top 50 tabs