>
 >
Pendolous Threads

Pendolous Threads Bass Tabs

Incubus - Pendolous Threads chords, tabs, tablatures, lyrics

Guitar lessons | Add/correct | Request | Top 50 tabs Artists:  A B C D E F G H I J K L M N O P Q R S T U V W X Y Z 0-9

Pendolous Threads Bass Tabs – Incubus

CD, Sheet music, Poster

Do you like Pendolous Threads? Share with your friends now
Bass Tabs
SONG:Pendolous Threads
ALBUM:Light Grenades

intro
|-------------------------------------------------------|
|-7-9-9-9---9-9----9----9----9----9-7-555555555---------|  x2
|-------------------------------------------------------|
|-------------------------------------------------------|

verse
|---------------------------------------------------------|
|-----0-2--2-2--2-2--2--2--2----0-2--2-2--2-2--2--2--2----|
|-0-2------------------------0-2--------------------------|
|---------------------------------------------------------|

|----------------------------------------------------|
|-----0----2-2--2-2--2--2--2--------0----------------|
|-0-2---2-----------------------0-2---2--------------|
|---------------------------------------0-0--0-0𥥤-|

|---------------------------------------------------|
|---5-----------------------------------------------|
|------2-0--0-0--0--0-0-----------------------------|
|-0--3-------------------3-5-7-5-3-3--3-3--3--3-3---|

|--------------------------------------------|
|-----------2--2--2--2------0-2--------------|
|-----------------------0-2------------------|
|-3-5-3-0-3----------------------------------|

bridge 1
|--------------------------------------------|
|-------4------------4-4-4-------------------|
|---------------2-0--------------------------|
|-0-3-0---0-3-0------------------------------|

chorus
|--11-9-------------------------|
|-------9-----------------------|
|---------7-7---7--7--7--7-10----|
|-------------------------------|

|------------------------------------------------------------------------|
|---------------------12-9-9-9-9-9-9-9-9-9-9-9-7-------------------------|
|0-5-6-7---7--7--7--10----------------------------10-10-10-10-10-10-10-10|
|------------------------------------------------------------------------|

bridge2
|-------------------------------------------------------------------------|
|-------------------------------------------------------------------------|
|-7-7-7-7-77-7-7-7-7-7-7-9-9-9-9-9-9-9-9-9-9-9-9-10-10-10-10-10-10-10-10-|
|-------------------------------------------------------------------------|


|--------------------------|
|-9-9-9-9-9-9-9-9-9-9-9-9--|
|--------------------------|
|--------------------------|

outro
|--12-10-------------------------|
|-------10-----------------------|
|---------8-8---8--8--8--8-11----|
|--------------------------------|

|--12-10------------------------------------------------------------------|
|-------10-------------------13-10-10-10-10-10-10-10-8--------------------|
|---------8-8---8--8--8--8-11-------------------------11-11-11-11-11-11-11|
|-------------------------------------------------------------------------|

|--------------------------|
|--------------------------|
|--8-8----8--8--8--8-11----|
|--------------------------|

|------------------------------------------------------------------|
|-----------------------13-10-10-10-10-10-10-13-13-13-10-10-10-8-8-|
|0-6-7-8---8--8--8--8-11-------------------------------------------|
|------------------------------------------------------------------|

|------------------------------------------|
|---------------------------------13----15-|
|-11-11-11-11-11-11-11-11-11-11-11---11----|
|------------------------------------------|

|--------------------------|
|--------------------------|
|--8-8----8--8--8--8-11----|
|--------------------------|

|----------------------------------------------------------15------|
|----------15-13--------------13-10-10-10-10-10-10-13-13-13--------|
|0-6-7-8--------15-13-11-8-11--------------------------------------|
|------------------------------------------------------------------|

|------------------------------------------|
|---------------------------------13----15-|
|-11---------------------------------11----|
|------------------------------------------|

I think that this tab isn't correctly at 100% but its sound is good.
Sorry for my bad english....

Song part:

Introduction guitar..
2x intro (with bass)
1x verse
1x bridge1
2x chorus
1x verse
2x bridge1
2x chorus
4x bridge1
4x bridge2
3x chorus
1x outro





Comments


Popular Incubus tabs & chords
Anna Molly 6 Bass Tabs
Promises Promises Bass Tabs
Blood On The Ground Tabs
Drive Live Tabs
Just A Phase 1 Tabs
Neither Of Us Can See Tabs
Pardon Me 2 Tabs
Rogues Tabs
Stellar Tabs
Take Me To Your Leader Tabs


Song lyrics



↑ Back to top | Tablatures and chords are parodies/interpretations of the original songs. You may use it for private study, scholarship, research or language learning purposes only
© 2014 AZChords.com Contact us | Privacy policy | DMCA | Add/correct tabs | Request tabs | Top 50 tabs