» » »

Pardon Me Verses Tabs (ver.1)

Artists:  A B C D E F G H I J K L M N O P Q R S T U V W X Y Z # 

Pardon Me Verses Tabs (ver.1)

Incubus
Rating:
0/5 (0 votes)

Hard to play? Try these video lessons and learn fast.
                Pardom Me verses                                 


                                                                            
E||-----------------------|-----------------------|------------------------|
B||---------7-------------|---------7----7--7-----|---------4--------------|
G||---------4-------------|---------4----4--4-----|---------6----6---------|
D||--6------6----6--4-----|---------6----6--6-----|---------5--------------|
A||-----------------------|--7------7----7--7--4--|--6------6-------6-6-6--|
E||--------------------7--|-----------------------|------------------------|


                                                                        
-----------------------|---------0-------------|-----------------------|
---------4-------------|---------0-------------|-----------------------|
---------6-------------|---------8-------------|---------8----8--8-----|
---------5----6--4-----|---------6-------------|---------9----9--9-----|
--6------6-------------|--4------4----6--4--0--|---------9----9--9--4--|
--------------------7--|-----------------------|--7------7----7--7-----|


                                                                           
---------0-------------|-------0--0----0--0-----|-----------0----0--0-----|
---------0-------------|-------0--0----0--0-----|-----------0----0--0-----|
---------9-------------|-------9--9----9--9-----|--------8----------------|
---------7----7--0--0--|--0----7--7----7--7-----|-----6-------------------|
--5------5-------------|-------5--5----5--5--2--|--4-------------------6--|
-----------------------|------------------------|-------------------------|


                                                                        
---------4----4--4-----|-----------------------|-----------------------|
---------4----4--4-----|---------9----9--9-----|---------9----9--9-----|
---------4----4--4-----|---------8----8--8-----|---------8----8--8-----|
---------6----6--6--7--|---------9----9--9--7--|---------9----9--9-----|
---------6----6--6-----|--7------7----7--7-----|--7------7----7--7-----|
--4------4----4--4-----|-----------------------|--------------------6--|


                                                  
----------------------|-----------0----0--0--0--||
---------7----7--7----|-----------0----0--0--0--||
---------8----8--8----|--------4----------------||
---------8----8--8----|-----4-------------------||
--6------6----6--6----|--2----------------------||
----------------------|-------------------------||
            
Hard to play? Try these video lessons and learn fast. | Correct




comments powered by Disqus
↑ Back to top | Tablatures and chords are parodies/interpretations of the original songs. You may use it for private study, scholarship, research or language learning purposes only