» » »

Pardon Me Bass tabs (ver.5)

Artists:  A B C D E F G H I J K L M N O P Q R S T U V W X Y Z # 

Pardon Me Bass tabs (ver.5)

Incubus
Rating:
0/5 (0 votes)

Tabs too difficult? Try these video lessons and learn fast.
                
Brendan Mearns and Balltongue Laid Out Basic Structure of the Song.  I 
filled in the majority of the riffs as best I could.  The combined 
efforts added up to over 3 hours of workin out this song.  Hope you 
enjoy it.

Intro
G|--------------|----------------|---------------|
D|-----Rest-----|*---------------|--------------*|
A|------1x------|*-4-------------|-4------------*|
E|--------------|---------5------|-------5-/-12--|

G|------------------------------|---------------------------------|
D|------------------------------|---------------------------------|
A|-4----------44444-44----------|-4-444-44--------4-444-44--------|
E|----5-55-555--------5-55-0-00-|---------55555-55--------5555-0h-|

G|-----------------------------------|
D|-----------------------------------|
A|4-444-44--------4-444-44-47777-----|
E|--------55555-55--------------7755-|

Verse
G|---------------------------|----------------------------------|
D|---------------------------|----------------------------------|
A|---------------------------|----------------------------------|
E|-44----00----1111h/6\1111h-|99-77-22-1010h\3/1010h-1010/13\12-|

G|--------------------------------------|------------------------------|
D|--------------------------------------|------------------------------|
A|-44----------------------111111/12\11-|----------------------------4-|
E|-----44---1212---/1212----------------|-11---77-----555555555555557--| 

Chorus
G|-----------------------------------|
D|*---------------------------------*|
A|*-4-44-4444-----------------------*|
E|------------777-5555-55-5502000200-|

G|
D|------------------------------------|
A|----------------------------7776652-|
E|-9-99-9999-555-5/777-77-7777--------|

                                         1st Time Only
G|-------------------------------------|------------------|
D|-------------------------------------|------------------|
A|4-44-4444----------------------------|------------------|
E|----------555-5/7777-77-7702000200---|-44---00---44---00|

Interlude
G|--------------|--------------|---------------|
D|--------------|-----Rest-----|---------------|
A|--------------|------1x------|-4-------------|
E|----------XXXX|--------------|--------5------|

G|---------------|----------------------------|
D|---------------|----------------------------|
A|-4-------------|-4-444-44--------4-444-44---|
E|-------5-/-12--|---------55555-55--------5h-|

Outtro
G|--------------------------------|--------------------------------|
D|--------------------------------|--------------------------------|
A|-4-444-44--------4-444-44-------|-4-444-44477-----4-444-44-------|
E|---------55555-55--------55550h-|------------77555--------55550h-|

Song Structure:  Intro, Verse, Chorus, Verse,
		 Chorus, Interlude, Chorus, Outtro
            
Tabs too difficult? Try these video lessons and learn fast.


comments powered by Disqus
↑ Back to top | Tablatures and chords are parodies/interpretations of the original songs. You may use it for private study, scholarship, research or language learning purposes only