>
 >
Pardon Me (Acoustic) 2

Pardon Me (Acoustic) 2 Guitar Tabs

Incubus - Pardon Me (Acoustic) 2 chords, tabs, tablatures, lyrics

Guitar lessons | Add/correct | Request | Top 50 tabs Artists:  A B C D E F G H I J K L M N O P Q R S T U V W X Y Z 0-9

Pardon Me (Acoustic) 2 Guitar Tabs – Incubus

CD, Sheet music, Poster

Do you like Pardon Me (Acoustic) 2? Share with your friends now
TabsTabs v2Tabs v3
TAB PLAYER 4 by S.Perandini


Standard Tuning (EADGBe)

Incubus - Pardon Me (Acoustic)
e|------------------------------------------------------|
B|---------0---------------0---------------0------------|
G|-----4-----4---4-----4-----4---4-----4-----4---4------|
D|---2---2-----2-----2---2-----2-----2---2-----2--------|
A|-4---------------0---------------4--------------------|
E|------------------------------------------------------|

e|---------00-----|
B|---------00-----|
G|-----4---44----*|  2 times
D|---2---2-22----*|
A|-0-------44-----|
E|----------------|

PRE-VERSE
e|-4-444-44--000000---4-444-44--000-0-0---|
B|-4-444-44--000000---4-444-44--000-0-0---|
G|-6-666-66--222222---6-666-66--222-0-0---|
D|-6-666-66--222222---6-666-66--222-2-2---|
A|-4-444-44--000000---4-444-44--000-2-2---|
E|-4-444-44--000000---4-444-44--000-0-0---|


e|-4-444-44--000000---4-444-44--77-77--5--|
B|-4-444-44--000000---4-444-44--77-77--5--|
G|-6-666-66--222222---6-666-66--99-77--5--|
D|-6-666-66--222222---6-666-66--99-99--7--|
A|-4-444-44--000000---4-444-44--77-99--7--|
E|-4-444-44--000000---4-444-44--77-77--5--|


VERSE
e|--2-2-----2-2--------------------00------------000----|
B|--0-0-----0-0-----222-----22-----44------------333----|
G|-1----1-----------000-----00------------444----222----|
D|--------2-----2-1-----1-1----1----------444--0--------|
A|-------------------------------4----4-2---------------|
E|------------------------------------------------------|

e|---000-----00-----------444---444----222-----0-0000000|
B|---333---4-00-----------444---444----222-----0-0000000|
G|---222--4---------------444---444----333---4---2222222|
D|-0---------------666--2-----2------1------4----2222222|
A|-------4---------666---------------------2-----0000000|
E|--------------44-------------------------------0000000|


CHORUS
e|-4-444-44--222-22-000-00------------------------------|
B|-4-444-44--222-22-000-00------------------------------|
G|-6-666-66--444-44-222-22---------------x2-------------|
D|-6-666-66--444-44-222-22--222-4-2-2-------------------|
A|-4-444-44--222-22-000-00--222-4-2-2-------------------|
E|-4-444-44--222-22-000-00--000-2-0-0-------------------|

e|-4-444-44--000-00-222-222-----------------------------|
B|-4-444-44--000-00-222-222-----------------------------|
G|-6-666-66--222-22-444-444--------------x2-------------|
D|-6-666-66--222-22-444-444-222-4-2-2-------------------|
A|-4-444-44--000-00-222-222-222-4-2-2-------------------|
E|-4-444-44--000-00-222-222-000-2-0-0-------------------|

e|-44-x-x-xx--00-x-x-xx--44-x-x-xx----------------------|
B|-44-x-x-xx--00-x-x-xx--44-x-x-xx----------------------|
G|-66-x-x-xx--22-x-x-xx--66-x-x-xx----------------------|
D|-66-x-x-xx--22-x-x-xx--66-x-x-xx----------------------|
A|-44-x-x-xx--00-x-x-xx--44-x-x-xx----------------------|
E|-44-x-x-xx--00-x-x-xx--44-x-x-xx----------------------|


VERSE
e|--2-2-----2-2--------------------00------------000----|
B|--0-0-----0-0-----222-----22-----44------------333----|
G|-1----1-----------000-----00------------444----222----|
D|--------2-----2-1-----1-1----1----------444--0--------|
A|-------------------------------4----4-2---------------|
E|------------------------------------------------------|

e|---000-----00-----------444---444----222-----0-0000000|
B|---333---4-00-----------444---444----222-----0-0000000|
G|---222--4---------------444---444----333---4---2222222|
D|-0---------------666--2-----2------1------4----2222222|
A|-------4---------666---------------------2-----0000000|
E|--------------44-------------------------------0000000|


CHORUS
e|-4-444-44--222-22-000-00------------------------------|
B|-4-444-44--222-22-000-00------------------------------|
G|-6-666-66--444-44-222-22---------------x2-------------|
D|-6-666-66--444-44-222-22--222-4-2-2-------------------|
A|-4-444-44--222-22-000-00--222-4-2-2-------------------|
E|-4-444-44--222-22-000-00--000-2-0-0-------------------|

e|-4-444-44--000-00-222-222-----------------------------|
B|-4-444-44--000-00-222-222-----------------------------|
G|-6-666-66--222-22-444-444--------------x2-------------|
D|-6-666-66--222-22-444-444-222-4-2-2-------------------|
A|-4-444-44--000-00-222-222-222-4-2-2-------------------|
E|-4-444-44--000-00-222-222-000-2-0-0-------------------|

BRIDGE
e|------------------------------------------------------|
B|---------0---------------0---------------0------------|
G|-----4-----4---4-----4-----4---4-----4-----4---4------|
D|---2---2-----2-----2---2-----2-----2---2-----2--------|
A|-4---------------0---------------4--------------------|
E|------------------------------------------------------|

e|---------00-----|
B|---------00-----|
G|-----4---44----*|  3 times
D|---2---2-22----*|
A|-0-------44-----|
E|----------------|

e|------------------------------------------------------|
B|---------0---------------0---------------0------------|
G|-----4-----4---4-----4-----4---4-----4-----4---4------|
D|---2---2-----2-----2---2-----2-----2---2-----2--------|
A|-4---------------0---------------4--------------------|
E|------------------------------------------------------|

e|-----0-------0-------0---0-00000-|
B|---0---0---0---0---0---0-0-00000-|
G|-6-------6-------6-------6-00000-|
D|---------------------------------|
A|---------------------------------|
E|---------------------------------|

CHORUS
e|-4-444-44--222-22-000-00------------------------------|
B|-4-444-44--222-22-000-00------------------------------|
G|-6-666-66--444-44-222-22---------------x2-------------|
D|-6-666-66--444-44-222-22--222-4-2-2-------------------|
A|-4-444-44--222-22-000-00--222-4-2-2-------------------|
E|-4-444-44--222-22-000-00--000-2-0-0-------------------|

e|-4-444-44--000-00-222-222-----------------------------|
B|-4-444-44--000-00-222-222-----------------------------|
G|-6-666-66--222-22-444-444--------------x2-------------|
D|-6-666-66--222-22-444-444-222-4-2-2-------------------|
A|-4-444-44--000-00-222-222-222-4-2-2-------------------|
E|-4-444-44--000-00-222-222-000-2-0-0-------------------|


Ending
e|-4-444-44--000000---4-444-44--000-0-0---|
B|-4-444-44--000000---4-444-44--000-0-0---|
G|-6-666-66--222222---6-666-66--222-0-0---|
D|-6-666-66--222222---6-666-66--222-2-2---|
A|-4-444-44--000000---4-444-44--000-2-2---|
E|-4-444-44--000000---4-444-44--000-0-0---|


e|-4-444-44--000000---4-444-44--77-77--55-|
B|-4-444-44--000000---4-444-44--77-77--55-|
G|-6-666-66--222222---6-666-66--99-77--55-|
D|-6-666-66--222222---6-666-66--99-99--77-|
A|-4-444-44--000000---4-444-44--77-99--77-|
E|-4-444-44--000000---4-444-44--77-77--55-|


e|-4-444-44--0000------------|
B|-4-444-44--0000------------|
G|-6-666-66--2222------------|
D|-6-666-66--2222--2*LET RING|
A|-4-444-44--0000--2---------|
E|-4-444-44--0000--0---------|





Comments


Popular Incubus tabs & chords
Circles 2 Bass Tabs
Hilikus 2 Bass Tabs
Smile Lines 2 Bass Tabs
Drive 1 Chords
11 Am 3 Tabs
I Miss You 1 Tabs
I Miss You 5 Tabs
Mexico 2 Tabs
Wish You Were Here 4 Tabs
Nice To Know You Ukulele


Song lyrics



↑ Back to top | Tablatures and chords are parodies/interpretations of the original songs. You may use it for private study, scholarship, research or language learning purposes only
© 2014 AZChords.com Contact us | Privacy policy | DMCA | Add/correct tabs | Request tabs | Top 50 tabs