» » »

Incubus, Pardon Me Tabs (ver.5)

Artists:  A B C D E F G H I J K L M N O P Q R S T U V W X Y Z # 

Pardon Me Tabs (ver.5)

Incubus Tabs
Rating:
0/5 (0 votes)
Pardon Me lessons Tabs too difficult? Try these video lessons and learn fast
                (Acoustic)
Tuning: Standard (E A D G B E)
Guitar: 6 String acoustic

Intro 
E|----------------------------------------------------------0-00--|
B|--------0----------------0----------------0---------------0-00--|
D|----4-----4-----------4----4----------4-----4-----------4-------|
G|--2---2-----2-------2---2----2------2---2-----2-------2---------|
A|4-------------4---------------4--4---------------4--------------|
E|-----------------5----------------------------------5-----------|

Pre Verse 
E|-------------0--------------------------------0----------------------|
B|-------------0--------------------------------0----------------------|
D|6-666-66--22-2--6-666-66--22-----6-666-66--22-2--6-666-66--99--------|
G|6-666-66--22-2--6-666-66--22-----6-666-66--22-2--6-666-66--99-99-88--|
A|4-444-44--00-0--4-444-44--00-2---4-444-44--00-0--4-444-44--77-99-88--|
E|-----------------------------0--------------------------------77-66--|

Verse 
E|----------------------------------00-------------00----00-----------0----44--|
B|------77-----77-------------------00-------------00----00-----------0----44--|
D|------44-----44-----66-----66-----88-----88------99----99-------8--------44--|
G|---6--66-----66-----55-----55-----66-----99------77----77-----6----------66--|
A|----------7--77--6--66--6--66--4--44-----99---5--55--5-55---4------------66--|
E|--------------------------------------7--77---------------------------4--44--|

E|--------------------------------2-2--|
B|------99----99------77--------2-2-2--|
D|------88----88--------------4--------|
G|------99----99------88----4----------|
A|---7--77--7-77--6---66---2-----------|
E|-------------------------------------|

Fill 1

E|--0-0--0000-0-0-00--|
B|--0-0--0000-0-0-00--|
D|--2-2--2222-2-2-22--|
G|--2-2--2222-2-2-22--|
A|--0 0--0000-0-0-00--|
E|--------------------|

Chorus
-|-------PLAY THIS PART TWICE------|
E|------------------0--------------|---------------------0--0-|
B|------------------0--------------|---------------------0--0-|
D|6-666-66--44--2-2-2--------------|-6-666-66-22-44-4--4------|
G|6-666-66--44--2-2-2--------------|-6-666-66-22-44-4--4------|
A|4-444-44--22--0-0-0--4-222-4-000-|-4-444-44-00-22-2--2------|
E|---------------------2-000-2-000-|--------------------------|

E|------------------------------------|
B|------------------------------------|
D|6-666-66--22-44--4--4---------------|
G|6-666-44--00-22--2--4---------------|
A|4-444-44--00-22--2--2--4-222-4-222--|
E|-----------------------2-000-2-000--|

Fill 2

E|-----------|
B|-----------|
D|-----------|
G|-----------|
A|--66---22--|
E|--44---00--|

Fill 3 
E|----0----0----0---0---|
B|---0-0--0-0--0-0-0-0--|
D|--6---6----6----6-----|
G|----------------------|
A|----------------------|
E|----------------------|

Ending 
E|-------------0---------------------------------------------------------|
B|-------------0---------------------------------------------------------|
D|6-666-66--22-2--6-666-66--22-----6-666-66--99----------6-666-66-22-----|
G|6-666-66--22-2--6-666-66--22-----6-666-66--99----------6-666-66-22-----|
A|4-444-44--00-0--4-444-44--00-2---4-444-44--77--99-88---4-444-44-00--2--|
E|-----------------------------0-----------------77-66----------------0--|

Song Structure:
intro
Pre-Verse
Verse
Fill 1
Chorus
Fill 2
Verse
Fill 1
Chorus
Intro
Fill 3
Chorus
Ending
            
Submit corrections

comments powered by Disqus
↑ Back to top | Incubus Tabs for Pardon Me. Lyrics for acoustic guitar and electric guitar. Tablatures and chords are parodies/interpretations of the original songs. You may use it for private study, scholarship, research or language learning purposes only