>
 >
Out From Under 2

Out From Under 2 Guitar Tabs

Incubus - Out From Under 2 chords, tabs, tablatures, lyrics

Guitar lessons | Add/correct | Request | Top 50 tabs Artists:  A B C D E F G H I J K L M N O P Q R S T U V W X Y Z 0-9

Out From Under 2 Guitar Tabs – Incubus

CD, Sheet music, Poster

Do you like Out From Under 2? Share with your friends now
Bass TabsTabsTabs v2Tabs v3

Standard tuning: (E A D G B E)

Intro
|--------------------------------------------------------------|
|---------------------------------2-2-2-2--2-2-2---------------|
|------------5-5-------------5-5--0-0-0-0--0-0-0---------------|
|-9p7-7------5-5--9p7-7------5-5--2-2-2-2--2-2-2--5-5-5--5-5-5-|
|-7---7--7-0-3-3--7---7--7-0-3-3--3-3-3-3--3-3-3--5-5-5--5-5-5-|
|-0---0--7-0-3-3--0---0--7-0-3-3------------------3-3-3--3-3-3-|

|-----------------------------------------------------------------|
|-----------------------------------------------------------------|
|------------5-5-------------5-5--4-4-4-4-2-2-2-2-----------------|
|-9p7-7------5-5--9p7-7------5-5--4-4-4-4-2-2-2-2-5-5-5---3-3-3-3-|
|-7---7--7-0-3-3--7---7--7-0-3-3--2-2-2-2-0-0-0-0-5-5-5---3-3-3-3-|
|-0---0--7-0-3-3--0---0--7-0-3-3--2-2-2-2---------3-3-3-0-1-1-1-1-|

Verse (w/ clean tone and delay)
|-----0-0--------------------0-0-----------------|
|---5----------------------5---------------------|
|-7----------------0-----7----------------0---0--|
|---------------10---------------------10--------|
|-------------8----------------------8-----------|
|------------------------------------------------|

|-----0-0--------------------0-0--------------0-0--0-0-|
|---5----------------------5------------------0-0--0-0-|
|-7----------------0-----7----------------0---0-0--0-0-|
|---------------10---------------------10--------------|
|-------------8----------------------8-----------------|
|------------------------------------------------------|
					      ^Distortion on

Chorus
|-------------------------------------------------------------------|
|-------------------------------------------------------------------|
|----7-7-----------------7-7------------------------5-5-5-5-3-3-3-3-|
|-7--7-7-8-8-7-----------7-7-8-8-7--2--3-2-2--3-2-2-5-5-5-5-3-3-3-3-|
|-7--5-5-8-8-7-----------5-5-8-8-7--2--3-2-2--3-2-2-3-3-3-3-1-1-1-1-|
|-5--5-5-6-6-5--5^-5^-5^-5-5-6-6-5--0--1-0-0--1-0-0-3-3-3-3-1-1-1-1-|

|-----------------------------------------------------------------|
|-----------------------------------------------------------------|
|----7-7-----------------7-7------------------------4-4-4-4-2-2-2-|
|-7--7-7-8-8-7-----------7-7-8-8-7--2--3-2-2--3-2-2-4-4-4-4-2-2-2-|
|-7--5-5-8-8-7-----------5-5-8-8-7--2--3-2-2--3-2-2-2-2-2-2-0-0-0-|
|-5--5-5-6-6-5--5^-5^-5^-5-5-6-6-5--0--1-0-0--1-0-0-2-2-2-2-------|

|-------------------------------------------------------------------|
|-------------------------------------------------------------------|
|----7-7-----------------7-7------------------------5-5-5-5-3-3-3-3-|
|-7--7-7-8-8-7-----------7-7-8-8-7--2--3-2-2--3-2-2-5-5-5-5-3-3-3-3-|
|-7--5-5-8-8-7-----------5-5-8-8-7--2--3-2-2--3-2-2-3-3-3-3-1-1-1-1-|
|-5--5-5-6-6-5--5^-5^-5^-5-5-6-6-5--0--1-0-0--1-0-0-3-3-3-3-1-1-1-1-|

|-----------------------------------------------------------------|
|-----------------------------------------------------------------|
|----7-7-----------------7-7------------------------5-5-5---------|
|-7--7-7-8-8-7-----------7-7-8-8-7--2--3-2-2--3-2-2-5-5-5-3-3-3-3-|
|-7--5-5-8-8-7-----------5-5-8-8-7--2--3-2-2--3-2-2-3-3-3-3-3-3-3-|
|-5--5-5-6-6-5--5^-5^-5^-5-5-6-6-5--0--1-0-0--1-0-0-3-3-3-1-1-1-1-|

Repeat Verse and Chorus the same

Interlude
|---------|
|---------|
|-5^~~~~~-|
|-5^~~~~~-|
|-5^~~~~~-|
|---------|

(w/ clean tone and delay)
|-----0-------0-------0-------0-------0-------0-------0-------0---|
|---5---5---5---5---5---5---5---5---5---5---5---5---5---5---5---5-|
|-7-------7-------7-------7-------7-------7-------7-------7-------|
|-----------------------------------------------------------------|
|-----------------------------------------------------------------|
|-----------------------------------------------------------------|x2
NOTE: Second time turn on a pitch shifter to get the sound he has.

|---------------------------------3-3-3-3--3-3-3---------------|
|---------------------------------3-3-3-3--3-3-3---------------|
|------------5-5-------------5-5--5-5-5-5--5-5-5---------------|
|-9p7-7------5-5--9p7-7------5-5--5-5-5-5--5-5-5--5-5-5--5-5-5-|
|-7---7--7-0-3-3--7---7--7-0-3-3--3-3-3-3--3-3-3--5-5-5--5-5-5-|
|-0---0--7-0-3-3--0---0--7-0-3-3--3-3-3-3--3-3-3--3-3-3--3-3-3-|

|---------------------------------------------------------------|
|---------------------------------------------------------------|
|------------5-5-------------5-5--4-4-4-4-2-2-2-2---------------|
|-9p7-7------5-5--9p7-7------5-5--4-4-4-4-2-2-2-2-5-5-5---3-3-3-|
|-7---7--7-0-3-3--7---7--7-0-3-3--2-2-2-2-0-0-0-0-5-5-5---3-3-3-|
|-0---0--7-0-3-3--0---0--7-0-3-3--2-2-2-2---------3-3-3-0-1-1-1-|

|--------------------------------|
|--------------------------------|
|------------------5-5-5-5-------|
|-2--3-2-2--3-2-2--5-5-5-5-7-7-7-|
|-2--3-2-2--3-2-2--3-3-3-3-7-7-7-|
|-0--1-0-0--1-0-0--3-3-3-3-5-5-5-|

Repeat Chorus

Outro
|----------------------------------------------------------------|
|----------------------------------------------------------------|
|------------5-5-------------5-5-------------5-5-------------5-5-|
|-9p7-7------5-5--9p7-7------5-5--9p7-7------5-5--9p7-7------5-5-|
|-7---7--7-0-3-3--7---7--7-0-3-3--7---7--7-0-3-3--7---7--7-0-3-3-|
|-0---0--7-0-3-3--0---0--7-0-3-3--0---0--7-0-3-3--0---0--7-0-3-3-|

|---------------------------------------------------------------|
|---------------------------------------------------------------|
|------------5-5-------------5-5--4-4-4-4-2-2-2-2---------------|
|-9p7-7------5-5--9p7-7------5-5--4-4-4-4-2-2-2-2-5-5-5---3-3-3-|
|-7---7--7-0-3-3--7---7--7-0-3-3--2-2-2-2-0-0-0-0-5-5-5---3-3-3-|
|-0---0--7-0-3-3--0---0--7-0-3-3--2-2-2-2---------3-3-3-0-1-1-1-|

That's the song





Comments


Popular Incubus tabs & chords
Anna Molly 2 Bass Tabs
Look Alive 3 Bass Tabs
Drive Chords
Aqueous Transmission 2 Tabs
I Miss You 2 Tabs
Make Yourself 2 Tabs
Sick Sad Little World Tabs
Talk Show On Mute 5 Tabs
Under My Umbrella 4 Tabs
Promises Promises Ukulele


Song lyrics



↑ Back to top | Tablatures and chords are parodies/interpretations of the original songs. You may use it for private study, scholarship, research or language learning purposes only
© 2014 AZChords.com Contact us | Privacy policy | DMCA | Add/correct tabs | Request tabs | Top 50 tabs