» » »

Incubus, Nice To Know You Tabs (ver.3)

Artists:  A B C D E F G H I J K L M N O P Q R S T U V W X Y Z # 

Nice To Know You Tabs (ver.3)

Incubus Tabs
Rating:
0/5 (0 votes)
Hard to play? Try these video lessons and learn fast.
                
Equipment Mike uses: PRS Hollowbody II guitar. Earnie Ball strings. 2 BOSS PH-2 Super Phaser Pedals MXR phase 90 pedal. Mesa Boogie Amps. and probably some other stuff, but i just expect he uses this for this song, maybe some other stuff. I am an incubus geek hehe, i can play lots, so you probably will see many incubus/other bands tabs from me :)
I am positive this is all correct, i have played to the song loads. There are many other tabs, which aren't bad, but a bit off, the other tab of this was the best i've seen. So this is just like all of them put together, but correct!



E--5-
B--10
G--11
D--9-
A----
E----
Intro with phaser, not too much of a phaser
gently strum it with your thumb, so you are always strumming down
you dont have to have the 5ht fret on e but it sounds better

E-------------             ------
B-------------             ------
G---------------           --------
D--2-444-777-444-          --2-44-7
A--2-444-555-444-          --2-44-5
E--0-222-555-222- 2 times  --0-22-5 then repeat from the start

intro w/ distortion
ALWAYS STRUM DOWNWARDS

verse is the intro with phaser
E--7-
B--10
G--11
D--9-
A----
E----

verse when mike scratches
D------
A------
E--12/2 

scratch the string fast but slide slowly, try not to scratch too far


pre-chorus
E--000-000-000-000
B--000-000-000-000
G--222-111-444-333
D--222-222-555-444
A--000-000-555-444
E----------333-222

listen to the song for timing, this is played clean. when you put on the 3554 you can put on the g bar chord, but mike does it with the gbe, the same with 3554, but f# chord. ALWAYS STRUM DOWN, THEN UP...

chorus is the distorted intro
E----------------          --------
B----------------          --------
G----------------          --------
D--2-444-777-444-          --2-44-7
A--2-444-555-444-          --2-44-5
E--0-222-555-222- 2 times  --0-22-5 then repeat from the start

verse
pre chorus
chorus

Special Bit
E---------000\00000---------000\00000---00000000000
B---------000\00000---------000\00000---00000000000
G---------000\00000---------000\00000---00000000000
D---------444\22222---------444\22222---2/444\22222
A-0-3-5-0-555\33333-0-3-5-0-555\33333-0-3/555\33333
E--------------------------------------------------

E------------0--00000-------------0--00000---00000000000
B-------------0-00000--------------0-00000---00000000000
G-----------0---00000------------0---00000---00000000000
D----------4----22222-----------4----22222---2/444\22222
A-0-3-5-0-5-----33333--0-3-5-0-5-----33333-0-3/555\33333
E-------------------------------------------------------

E---------000\00000-------------0--00000---00000000000
B---------000\00000--------------0-00000---00000000000
G---------000\00000------------0---00000---00000000000
D---------444\22222-----------4----22222---2/444\22222
A-0-3-5-0-555\33333--0-3-5-0-5-----33333-0-3/555\33333
E-----------------------------------------------------
Listen to the song for timing. ON THE CHORDS, STRUM DOWN THEN UP...

and on this bit
D---2/444\22222
A-0-3/555\33333
E--------------
i don't think it really matters if you play the A open, because it is so quick you can't really hear it, well i can't.

Play Chorus
On Ending
e-0
B-0
G-2
D-2
A-0
STRUM.DOWN.UP.DOWN AND DONT LET IT RING


So this is the order of the song
Intro w/ Phaser
Intro distorted
Intro w/ phaser (verse)
Pre-Chorus
Intro distorted (chorus)
Intro w/ Phaser (verse)
Pre-Chorus
Intro distorted (chorus)
Special Bit
Intro distorted (chorus)

Enjoy and if you have problems e-mail i'll help
            

comments powered by Disqus
↑ Back to top | Incubus Tabs for Nice To Know You. Lyrics for acoustic guitar and electric guitar. Tablatures and chords are parodies/interpretations of the original songs. You may use it for private study, scholarship, research or language learning purposes only