» » »

Incubus, Nice To Know You Tabs (ver.1)

Artists:  A B C D E F G H I J K L M N O P Q R S T U V W X Y Z # 

Nice To Know You Tabs (ver.1)

Incubus Tabs
Rating:
0/5 (0 votes)
Nice To Know You lessons Tabs too difficult? Try these video lessons and learn fast
                Its all there, just work out the timing yourself, I love the
Bridge in this song, whenever I play a gig, I always use
a bit of impro. sounds really good.
Tuning is standard, definatly NOT drop D.

(intro)
-7----------------------------------------------------------------------------
-10---------------------------------------------------------------------------
-11---------------------------------------------------------------------------
 play this loads of times with a delay/flanger effect           

(intro2)
-------------------|-----------------------------|----------------------------
-------------------|-----------------------------|----------------------------
-------7-7-7-------|-------7-7-7-----------------|----------------------------
---4-4-7-7-7---4-4-|---4-4-7-7-7---4-4-4-4/7-7-7-|----------------------------
-0-4-4-5-5-5-0-4-4-|-0-4-4-5-5-5-0-4-4-4-4/7-7-7-|----------------------------
-0-2-2-5-5-5-0-2-2-|-0-2-2-5-5-5-0-2-2-2-2/5-5-5-|----------------------------
                                                                              

(verse)
-----------------------------7-----------------------------7------------------
-----------------------------10----------------------------10-----------------
-----------------------------11----------------------------11-----------------
-4----------------------------------------------------------------------------
-x-----------x\x--x\---------------------x\x--x\------------------------------
-2----------------------------------------------------------------------------
            pick scr*pes                pick scr*pes                         

(pre-chorus)
-0v-----0-----0-----0---------0-----------------------------------------------
-0v-----0-----0-----0---------0-----------------------------------------------
-2v-----1-----0-4---4-----3---3-----7-----0-----------------------------------
-2v-----2-------5---5-----4---4-----7---2-0-----------------------------------
-0v-----0-------5---5-----4---4-----5-2-2-------------------------------------
----------------3---3-----2---2-----5-0-0-------------------------------------
(listen for the rythem)                               

(chorus)
-----------------|------------------------------------------------------------
-----------------|------------------------------------------------------------
-------7-7-------|-------7-7--------------------------------------------------
-5-4-4-7-7---4-4-|---4-4-7-7---4-4-4-4/7-7-7----------------------------------
-5-4-4-5-5-0-4-4-|-0-4-4-5-5-0-4-4-4-4/7-7-7----------------------------------
-3-2-2-5-5-0-2-2-|-0-2-2-5-5-0-2-2-2-2/5-5-5----------------------------------
play a G5'th chord on every first bar of the chorus, after that just play the 
open 0's
                                                            
(bridge)
---------|-----------------0-0-0-0-0-0-0-0------------------------------------
---------|---0-0-0---0-----0-0-0-0-0-0-0-0---0--------------------------------
---------|---0-0-0---0-0-0-0-0-0-0-0-0-0-0---0-0-0----------------------------
---------|-4-4-4-4-2---2-2-2-2-2-2-2-2-2-2-2---2-2----------------------------
-0-3-5-0-|-5---5-5-3-------3-3-3-3-3-3-3-3-3-------0-3-5-0--------------------
---------|--------------------------------------------------------------------
                                                                   

---------------0-0-0--------------0-0-0---------|-----------------------------
---0-0-0---0---0-0-0--------------0-0-0---------|-------0---------------------
-0-0-0-0-0-0-0-0-0-0--------0---2-2-2-2---------|-----0-----------------------
-4-------2---2-2-----2/4--4---0-2-2-2-2---------|---4-------------------------
-5-------3-----3-----3/5--5---0-0-0-0-0-0-3-5-0-|-5---------------------------
------------------------------------------------|-----------------------------

Repeat whatever riffs you need to, then you're finished.
Peace dude's.
            

comments powered by Disqus
↑ Back to top | Incubus Tabs for Nice To Know You. Lyrics for acoustic guitar and electric guitar. Tablatures and chords are parodies/interpretations of the original songs. You may use it for private study, scholarship, research or language learning purposes only