» » »

Incubus, Make Yourself Tabs (ver.3)

Artists:  A B C D E F G H I J K L M N O P Q R S T U V W X Y Z # 

Make Yourself Tabs (ver.3)

Incubus Tabs
Rating:
0/5 (0 votes)
Make Yourself lessons Tabs too difficult? Try these video lessons and learn fast
                #This OLGA file is the author's own work and represents their interpretation  #
#research. Remember to view this file in Courier, or some other monospaced    #


       BAND - INCUBUS
       SONG - MAKE YOURSELF



       THE INTRO AND MAIN RIFF FOR THIS SONG HAS A DIFFICULT RHYTHM SO 
PERSEVERE.



       MAIN RIFF THROUGH SONG.
E--------------------------------------------------
B--------------------------------------------------
G--------------------------------------------------
D------9-9-5-5-5-5-8-9-9-5-5-5-5-8-8-8----REPEAT---
A------9-9-5-5-5-5-8-9-9-5-5-5-5-8-8-8-------------
E------7-7-3-3-3-3-6-7-7-3-3-3-3-6-6-6-------------



       CHORUS
E--------------------------------------------------
B--------------------------------------------------
G------7-7-7----------------7-7-7------------------
D------7-7-7-8-8-8-5-5-5-5--7-7-7-8-8-8-5-5-3-3--PLAY TWICE
A------5-5-5-8-8-8-5-5-5-5--5-5-5-8-8-8-5-5-3-3----
E------------6-6-6-3-3-3-3--------6-6-6-3-3-1-1----



       QUITE PART PLAYED WITH CLEAN SOUND
E--------------------------------------------------
B--------PAUSE HERE--------------------------------
G-----------V--------------------------------------
D------11-9---9-8----------------------------------
A------9--7---7-6----------------------------------
E--------------------------------------------------



       OUTRO
E--------------------------------------------------
B--------------------------------------------------
G--------------------------------------------------
D------9-9-5-5-5-5-8-8-8----REPEAT X 4-------------
A------9-9-5-5-5-5-8-8-8---------------------------
E------7-7-3-3-3-3-6-6-6---------------------------
            

comments powered by Disqus
↑ Back to top | Incubus Tabs for Make Yourself. Lyrics for acoustic guitar and electric guitar. Tablatures and chords are parodies/interpretations of the original songs. You may use it for private study, scholarship, research or language learning purposes only