» » »

Made For Tv Movie Bass tabs (ver.1)

Artists:  A B C D E F G H I J K L M N O P Q R S T U V W X Y Z # 

Made For Tv Movie Bass tabs (ver.1)

Incubus
Rating:
0/5 (0 votes)

Hard to play? Try these video lessons and learn fast.
                Made for a TV movie
THIS IS ONLY BASIC! MAKE A REAL TAB OFF THIS!
inclazybus

chorus
----------------------------------------------
----------------------------------------------
--------3--5----------------------------------
---3--0-------6-------------------------------


outro

----------------------------------------------
----------------------------------------------
--3--1--------1---3-3-1------1----------------
--------3--0-3-3-0------3-0-3-3-0--5-5-5------
            
Hard to play? Try these video lessons and learn fast. | Correct




comments powered by Disqus
↑ Back to top | Tablatures and chords are parodies/interpretations of the original songs. You may use it for private study, scholarship, research or language learning purposes only