» » »

Incubus, In The Company Of Wolves Tabs (ver.1)

Artists:  A B C D E F G H I J K L M N O P Q R S T U V W X Y Z # 

In The Company Of Wolves Tabs (ver.1)

Incubus Tabs
 Rating:
4/5 (4 votes)
In The Company Of Wolves lessons Tabs too difficult? Try these video lessons and learn fast
1
                -----------------------------------------------------------------------------
                         Incubus - In The Company Of Wolves
-----------------------------------------------------------------------------

Tuning: Standard

This song is in the key of Am.

Intro
-------

|C--------||F----C----||G--------|

Verse
------
C            F    C        G
   I was lost but now I am found.
C                    F    C          G
   A line was crossed, a vessel run aground.
C                   F      C                  G
   The boy has gone, let's grieve and let him go.
C                 F           C                  G        G   G/F#
   He left at dawn, but it's a new day don't you know?

Chorus
-------
       Em                         Am
In the company of wolves I sat in silence
Am/G          Am/F#         F
observant and afraid
        Em                                Am
He was there with the eyes like glowing embers
    Am/G             D      Dm
the man you see was made.

Verse
------
C            F    C        G
   I was lost but now I am high.
C                   F    C          G
   It helps to know serenity from ennui.
   C                        F                 C               G
Something's wrong, something's wrong, when it all remains the same.
C                   F    C            G
   So face the fire, come into your name.

Chorus
-------
In the company of wolves I sat in silence, observant and afraid.
He was there with the eyes like glowing embers, the man knew she was made.

Outro
-------
Even I can't recall how many days I have been out there for
but when Aurora’s light ceased to shine,
I was alive, I think, for the first time.
Infinity it falls, in feathery folds but she bites like loveless ice,
And with her belly full she culled this rite of passage,
It was the longest night of my life.

Break (4:37)                                       1st. Ending
e|-----------------------------------------------|-------------|
B|-----------------------------------------------|-------------|
G|-----------------------------------------------|-------------|
D|-----------------------------------------------|-------------| x2
A|-----------------------------------------------|----------8--|
E|-15------11---------8-13-8-13---8--------------|-8---11------|

It was the longest night of my life.

Even I can't recall how many days I have been out there for
but when Aurora’s light ceased to shine,
I was alive, I think, for the first time.
Infinity it falls, in feathery folds but she bites like loveless ice,
And with her belly full she culled this rite of passage,
It was the longest night of my life.

(5:31) w/ heavy distortion
e|------------------------------------------------------------|
B|------------------------------------------------------------|
G|------------------------------------------------------------| x2
D|------------------------------------------------------------|
A|------------------------------------------------------------|
E|-15------11---------8-13-8-13------8------------------------|

         ^^^^^
After two repeats do this riff w/ some tremelo picking, and finally smear bends on the 
last 8th fret played each time.

e|----------------------------|
B|--10----(10)----10-----10---|
G|--12fb--(14)---r12-----12fb-| this goes at the end of the progression until
D|----------------------------|      the end.
A|----------------------------|
E|----------------------------|

e|-------------------------------|
B|--10----(10)----10-------------|
G|--12fb--(14)---r12--10--8---5--| This progression is also played every
D|--------------------x---x---x--| other time roughly.
A|--------------------8---6---3--|
E|-------------------------------|
            
Submit corrections

comments powered by Disqus
↑ Back to top | Incubus Tabs for In The Company Of Wolves. Lyrics for acoustic guitar and electric guitar. 1 Tablatures and chords are parodies/interpretations of the original songs. You may use it for private study, scholarship, research or language learning purposes only