» » »

Golden Tabs (ver.1)

Artists:  A B C D E F G H I J K L M N O P Q R S T U V W X Y Z # 

Golden Tabs (ver.1)

Incubus
Rating:
0/5 (0 votes)

Hard to play? Try these video lessons and learn fast.
                
This is from Mike's solo stuff.


p = pull off


e----------------------------------------------------------------------------|
B--------6p5--5--------------10-------10-------------------------------------|
G-----6------6----6---6---/9---9---------------------------------------------|
D---7--7------------7-------------10-----------------------------------------|
A-0--------------------------------------------------------------------------|
E----------------------------------------------------------------------------|

e-----------12----------------------------10-------------------------------------|
B-----10--------10-----10---------10----------10------10-------------------------|
G--------11--------11-----------------10----------10-----------------------------|
D--------------------------------------------------------------------------------|
A--9--------------------------8--------------------------------------------------|
E--------------------------------------------------------------------------------|

         A                 G
e----5----------3---------------------------------------------------------|
B----5----------3------------6p5---5--------------------------------------|
G----6----------4----------------6----------------------------------------|
D----7----------5---------------------------------------------------------|
A----7----------5---------------------------------------------------------|
E----5----------3---------------------------------------------------------|

Listen to song for strum pattern.

At the end he is just fiddling with the A chord.
            
Hard to play? Try these video lessons and learn fast. | Correct




comments powered by Disqus
↑ Back to top | Tablatures and chords are parodies/interpretations of the original songs. You may use it for private study, scholarship, research or language learning purposes only