» » »

Friends And Lovers Tabs (ver.3)

Artists:  A B C D E F G H I J K L M N O P Q R S T U V W X Y Z # 

Friends And Lovers Tabs (ver.3)

Incubus
Rating:
0/5 (0 votes)

Hard to play? Try these video lessons and learn fast.
                (Intro)
Heey!
Hope you enjoy my very firt tab!!

e|------------------------------|-------------------9----------|
B|--3---5---8---10---12--12--12-|--3---5---8---10-------12--12-|
G|----0---0---0----0---0---0---0|----0---0---0----0---0---0---0|
D|------------------------------|------------------------------|
A|------------------------------|------------------------------|
E|--3---5---8---10---12--12--12-|--3---5---8---10---12--12--12-|

e|------------------------------|------------------------------|
B|--3---5---8---10---12--12--12-|------8-8-8--------8-8-8------|
G|----0---0---0----0---0---0---0|--7h9-------9--7h9-------7----|
D|------------------------------|------------------------------|
A|------------------------------|------------------------------|
E|--3---5---8---10---12--12--12-|--8------------8--------------|  

Chorus and Solo: Not yet :D
            
Hard to play? Try these video lessons and learn fast. | Correct




comments powered by Disqus
↑ Back to top | Tablatures and chords are parodies/interpretations of the original songs. You may use it for private study, scholarship, research or language learning purposes only