>
 >
Circles 2

Circles 2 Guitar Tabs

Incubus - Circles 2 chords, tabs, tablatures, lyrics

Guitar lessons | Add/correct | Request | Top 50 tabs Artists:  A B C D E F G H I J K L M N O P Q R S T U V W X Y Z 0-9

Circles 2 Guitar Tabs – Incubus

CD, Sheet music, Poster

Do you like Circles 2? Share with your friends now
Bass TabsBass Tabs v2Bass Tabs v3TabsTabs v2Tabs v3Tabs v4
Intro/Outro
   X3
e|----------------------------|-------------------------|
B|----------------------------|-------------------------|
G|--------------------5-5-5---|-------------------------|
D|--------------------5-5-5-x-|-----------------3/5-5-5-|
A|------5-------5-----3-3-3-x-|-----1-----1-----3/5-5-5-|
D|-0--3----0-3----3-0-5-5-5-x-|-0-3---0-3---3-0-3/5-5-5-|

Post Intro/Outro

e|---------------------|-----------------------------|
B|---------------------|-----------------------------|
G|-------------------5-|---------------------------5-|
D|-0-0-x-x-0-0-x-x-0-5-|-0-0-x-x-0-0-x-x-0-0-x-x-0-5-|
A|-0-0-x-x-0-0-x-x-0-3-|-0-0-x-x-0-0-x-x-0-0-x-x-0-3-|
D|-0-0-x-x-0-0-x-x-0-5-|-0-0-x-x-0-0-x-x-0-0-x-x-0-5-|

Verse

e|-----------------------------------------|
B|-----------------------------------------|
G|-7-7--x--7-7--x--5--x--7-7-----7-7--x--5-|
D|-x-x--x--x-x--x--x--x--x-x-----x-x--x--x-|
A|-5-5--x--5-5--x--3--x--5-5-----5-5--x--3-|
D|-x-x--x--x-x--x--x--x--x-x-----x-x--x--x-|

e|----------------------------------------|
B|----------------------------------------|
G|----------------------------------------|
D|-15-15-15-x--10-10-10-x--6-6-6-x--3-3-3-|
A|-15-15-15-x--10-10-10-x--6-6-6-x--3-3-3-|
D|-15-15-15-x--10-10-10-x--6-6-6-x--3-3-3-|

Pre-Chorus

e|---------------------------|
B|---------------------------|
G|-------------5-5-5-5-5-5-5-|
D|-1--1-1-1-x--5-5-5-5-5-5-5-|
A|-1--1-1-1-x--3-3-3-3-3-3-3-|
D|-1--1-1-1-x--5-5-5-5-5-5-5-|

Chorus
   X3
e|-----------------------------|------------------------------|
B|-----------------------------|------------------------------|
G|-7--7-7-7--7-7--7-7--5-5-5-5-|----------------3--3-3-3--3-3-|
D|-7--7-7-7--7-7--7-7--5-5-5-5-|-3--3-3-3--3-3--3--3-3-3--3-3-|
A|-5--5-5-5--5-5--5-5--3-3-3-3-|-3--3-3-3--3-3--1--1-1-1--1-1-|
D|-x--x-x-x--x-x--x-x--x-x-x-x-|-3--3-3-3--3-3--3--3-3-3--3-3-|

- Verse
- Pre-Chorus
- Chorus
           <.NH.>
e|-------------7-------------|-----------------------|
B|------------7--------------|-----------------------|
G|-------3---7----------3----|-------3----------3----|
D|-5--0--3--7-----5--0--3--3-|-5--0--3----5--0--3--3-|
A|-5--0--1--------5--0--1--3-|-5--0--1----5--0--1--3-|
D|-5--0--3--------5--0--3--3-|-5--0--3----5--0--3--3-|

           <.NH.>                      <.NH.>
e|-------------7-------------|-------------7---------|
B|------------7--------------|------------7----------|
G|-------3---7----------3----|-----------7---------3-|
D|-5--0--3--7-----5--0--3--3-|-5--0--8--7----5--0--3-|
A|-5--0--1--------5--0--1--3-|-5--0--8-------5--0--1-|
D|-5--0--3--------5--0--3--3-|-5--0--8-------5--0--3-|

- Pre-Chorus
- Chorus
- Outro
- Post-Outro





Comments


Popular Incubus tabs & chords
Hilikus 2 Bass Tabs
Just A Phase Bass Tabs
Stellar 4 Bass Tabs
Thieves Intro Bass Tabs
The Warmth 2 Drum Tabs
Aqueous Transmission Intro 2 Tabs
Have You Ever Intro Tabs
I Miss You Tabs
Nebula Tabs
Pardon Me Acoustic Intro Tabs


Song lyrics



↑ Back to top | Tablatures and chords are parodies/interpretations of the original songs. You may use it for private study, scholarship, research or language learning purposes only
© 2014 AZChords.com Contact us | Privacy policy | DMCA | Add/correct tabs | Request tabs | Top 50 tabs