» » »

Incubus, Anti Gravity Love Song Tabs (ver.1)

Artists:  A B C D E F G H I J K L M N O P Q R S T U V W X Y Z # 

Anti Gravity Love Song Tabs (ver.1)

Incubus Tabs
 Rating:
4/5 (4 votes)
Anti Gravity Love Song lessons Tabs too difficult? Try these video lessons and learn fast
                (Intro)
HERE'S TWO OF THE RIFFS FROM THE SONG
- WILL COMPLETE THE TAB WHEN I HAVE TIME


H = HAMMER ON
P = PULLOFF
S = LEGATO SLIDE


use strict alternating picking for this bit

E|7---10---x---7---x---x---5---7---x---x---2---x---2---5---x---x---|
B|7---10---x---7---x---x---5---7---x---x---2---x---2---5---x---x---|
G|-----------------------------------------------------------------|
D|-----------------------------------------------------------------|
A|-----------------------------------------------------------------|
E|-----------------------------------------------------------------|


E|7---10---x---7---x---x---5---7---x---x---3---x---3---5---x---x---|
B|7---10---x---7---x---x---5---7---x---x---3---x---3---5---x---x---|
G|-----------------------------------------------------------------|
D|-----------------------------------------------------------------|
A|-----------------------------------------------------------------|
E|-----------------------------------------------------------------|




E|7-H-10-P-7-------------------------------------------------------|
B|-------------9---------------------------------------------------|
G|-----------------7-H-9-----------7-------9-------9-S-11-------9--|
D|-------------------------7-S-6-------6-------6-------------------|
A|-----------------------------------------------------------------|
E|-----------------------------------------------------------------|
            
Submit corrections

comments powered by Disqus
↑ Back to top | Incubus Tabs for Anti Gravity Love Song. Lyrics for acoustic guitar and electric guitar. Tablatures and chords are parodies/interpretations of the original songs. You may use it for private study, scholarship, research or language learning purposes only