>
 >
Anti Gravity

Anti Gravity Guitar Tabs

Incubus - Anti Gravity chords, tabs, tablatures, lyrics

Guitar lessons | Add/correct | Request | Top 50 tabs Artists:  A B C D E F G H I J K L M N O P Q R S T U V W X Y Z 0-9

Anti Gravity Guitar Tabs – Incubus

CD, Sheet music, Poster

Do you like Anti Gravity? Share with your friends now
Tabs
Summer Romance (Anti-Gravity Love-Song)




Sax solo is included, transcribed for guitar.
I've also done the bass tabs for this song (at the bottom).
If you really want me to do the variations in the guitar



h = hammer-on
p = pull-off
/ or \ = slide (only first note is attacked)
x = muffled strings
b = bend up; r = release bend; (x) = pitch of bend note
~ = vibrato



INTRO:

low E string:

E|x--x--x----x--x-|



RIFF A:
E|7-h10---x---7---|x---x---5-h-7---|x---x---2---x---|2-h-5---x---x---|


                                                            END RIFF A
E|7-h10---x---7---|x---x---5-h-7---|x---x---3---x---|3-h-5---x---x---|



PLAY RIFF A THREE TIMES, THEN PLAY:



E|7-h10---x---7---|x---x---5-h-7---|x---x---2---x---|2-h-5---x---x---|


E|7-h10---x---x---|5-h-7---x---x---|3-h-5---x---x---|0-h-2---x---x---|



PLAY RIFF A AGAIN, THEN PLAY THIS (RIFF B):


RIFF B
E|7-h10---x---7---|x---x---5-h-7---|x---x---2---x---|2-h-5---x---x---|


                                                            END RIFF B
E|7-h10---x---7---|x---x---5-/-7---|7---7---7---7---|7---7---7---7---|



PLAY RIFF A AGAIN, THEN PLAY RIFF B, THEN PLAY:


E|7-h-10-p7-------|----------------|----------------|----------------|
B|-------------9--|----------------|----------------|----------------|
G|----------------|7-h-9-----------|7-------9-------|7-/-9-----------|
D|----------------|--------7-\-6---|----6-------6---|----------------|
A|----------------|----------------|----------------|----------------|
E|----------------|----------------|----------------|----------------|


E|----------------|----------------|----------------|----------------|
B|----------------|----------------|----------------|----------------|
G|7---7-----------|----------------|----------------|----------------|
D|----------------|----------------|----------------|----------------|
A|----------------|----------------|----------------|----------------|
E|----------------|----------------|----------------|----------------|


VERSE:  "I'm home alone tonight..."

Play these four lines four times, improvising in measures 9-16

E|7---------------|----------------|----------------|----------------|
B|7---------------|----------------|----------------|----------------|
G|7---------------|----------------|----------------|----------------|
D|7---------------|----------------|----------------|----------------|
A|9---------------|----------------|----------------|----------------|
E|7---------------|----------------|----------------|----------------|


E|----------------|10------12------|13/14---12------|10-/12------10--|
B|----------------|-x-------x------|x--------x------|-x-----------x--|
G|----------------|-7-------9------|10/11----9------|-7-/-9-------7--|
D|----------------|----------------|----------------|----------------|
A|----------------|----------------|----------------|----------------|
E|----------------|----------------|----------------|----------------|


E|----------------|----------------|----------------|----------------|
B|----12----------|----------------|----------------|----------------|
G|----x-----------|----------------|----------------|----------------|
D|----9-----------|----------------|----------------|----------------|
A|----------------|----------------|----------------|----------------|
E|----------------|----------------|----------------|----------------|


E|----------------|----------------|----------------|----------------|
B|----------------|----------------|----------------|----------------|
G|----------------|----------------|----------------|----------------|
D|----------------|----------------|----------------|----------------|
A|----------------|----------------|----------------|----------------|
E|----------------|----------------|----------------|----------------|



PRE-CHORUS:  "When we get there..."

    Emin7  |  Dmaj7  |  Gdim7  |  Bmin7  |   Bmin  
E|----9----|----5----|----6----|----7----|----10---|
B|----8----|----7----|----8----|----7----|----12---|
G|----7----|----6----|----9----|----7----|----11---|
D|----9----|----7----|----8----|----7----|----9----|
A|----7----|----5----|---------|----9----|---------|
E|---------|---------|---------|----7----|---------|


Emin7
|E-----------E---|x---x---E-------|E---E---E---E---|E---E---x---x---|


Dmaj7
|D------(D)--D---|x---x---D-------|D---D---D---D---|D---D---x---x---|


Gdim7
|G-----------G---|x---x---G-------|----G---G---G---|G---G---x---x---|


Bmin7                             Bmin
|B-----------B---|B---B---x---x---|B-------B---B---|B---B---B---x---|


Emin7
|E-----------E---|x---x---E-------|E---E---E---E---|E---E---x---x---|


Dmaj7
|D------(D)--D---|x---x---D-------|----D---D---D---|D---D---x---x---|


Gdim7
|G-----------G---|x---x---G-------|----G---G---G---|G---G---x---x---|


Bmin7
|B-------B-------|B-------B-------|B-------B-------|B-------B---B---|




CHORUS:  "Antigravity..."

play RIFF A, then RIFF B, then RIFF A, then RIFF B



PRE-VERSE:


E|----------------|----------------|----------------|----------------|
B|----------------|----------------|----------------|----------------|
G|7-----------7---|x-------7-------|----7---7---7---|7---7---x---x---|
D|x-----------x---|x-------x-------|----x---x---x---|x---x---x---x---|
A|5-----------5---|x-------5-------|----5---5---5---|5---5---x---x---|
E|----------------|----------------|----------------|----------------|


E|----------------|----------------|----------------|----------------|
B|----------------|----------------|----------------|----------------|
G|----------------|----------------|----------------|----------------|
D|4-----------2---|--------4-------|12--------------|9---------------|
A|4-----------2---|--------4-------|12--------------|8---------------|
E|2-----------0---|--------2-------|10--------------|9---------------|


E|----------------|----------------|----------------|----------------|
B|----------------|----------------|----------------|----------------|
G|----------------|----------------|----------------|----------------|
D|7---7-------7---|----7---7-------|7---------------|----------------|
A|9---9-------9---|----9---9-------|9---------------|----------------|
E|7---7-------7---|----7---7-------|7---------------|----------------|



VERSE:  "For years, I kept to myself..."

- As before



PRE-CHORUS:  "When we get there..."

 - As before



CHORUS:  "Antigravity..."

 - As before



INTERLUDE:

E|----------------|----------------|----------------|----------------|
B|----------------|----------------|----------------|----------------|
G|7-----------7---|x-------7-------|----7---7---7---|7---7---x---x---|
D|7-----------7---|x-------7-------|----7---7---7---|7---7---x---x---|
A|5-----------5---|x-------5-------|----5---5---5---|5---5---x---x---|
E|----------------|----------------|----------------|----------------|


E|----------------|----------------|----------------|----------------|
B|----------------|----------------|----------------|----------------|
G|----------------|----------------|----------------|----------------|
D|4-----------2---|--------4-------|12--------------|9---------------|
A|4-----------2---|--------4-------|12--------------|8---------------|
E|2-----------0---|--------2-------|10--------------|9---------------|


  Play this line four times (forth time: sax enters)
E|----------------|----------------|----------------|----------------|
B|----------------|----------------|----------------|----------------|
G|----------------|----------------|----------------|----------------|
D|7---7-------7---|----7---7-------|7---------------|----------------|
A|9---9-------9---|----9---9-------|9---------------|----------------|
E|7---7-------7---|----7---7-------|7---------------|----------------|


E|----------------|----------------|----------------|----------------|
B|----------------|----------------|----------------|----------------|
G|----------------|----------------|----------------|----------------|
D|----------------|----------------|----------------|----------------|
A|----------------|----------------|----------------|----------------|
E|----------------|----------------|----------------|----------------|



SAX SOLO TABBED FOR GUITAR:


Add any extra hammer-ons/pull-offs/vibrato wherever you want

E|--------------------------------|----------------5-p-0-------10-p|
B|------------------------3-------|3-/-5---3-h-5-----------10------|
G|4-----------2-------2-------2---|--------------------------------|
D|----0-h-2-------2---------------|--------------------------------|
A|--------------------------------|--------------------------------|
E|--------------------------------|--------------------------------|


E|9-------------------------------|9-h-10-p9-----------------------|
B|------------------------10-h12--|------------------------12/-/-/-|
G|--------------------------------|---------------------------^----|
D|--------------------------------|------------------------ steady |
A|--------------------------------|------------------------ slide  |
E|--------------------------------|--------------------------------|


E|--------------------------------|----7---------------------------|
B|9-----------------------7---9---|10------9-----------8-----------|
G|--------------------------------|------------------------9-h-10--|
D|--------------------------------|--------------------------------|
A|--------------------------------|--------------------------------|
E|--------------------------------|--------------------------------|


E|--------------------------------|--------------------------------|
B|7---------------5---------------|8---9p7-------------7-----------|
G|----7---------------6-----------|--^-----9---8---7-------6-----4-|
D|--------9---------------7-------|--^-----------------------------|
A|----------------------------- is actually -----------------------|
E|---------------------- 8/10\9 (only 8 is attacked) --------------|


E|--------------------------------|--------------------------------|
B|5-------------------------------|----------------------------10--|
G|--------------------------------|----------------9---7-----------|
D|--------------------------------|--------------------------------|
A|--------------------------------|--------------------------------|
E|--------------------------------|--------------------------------|


E|--------------------------------|--------------------------------|
B|--------------------------------|--------------------------------|
G|9-------------------~~~~7-------|9-------9---7-------------------|
D|--------------------------------|--------------------------------|
A|--------------------------------|--------------------------------|
E|--------------------------------|--------------------------------|


E|--------------------------------|--------------------------------|
B|----------------10--------------|--------------------------------|
G|--------9-----------9-------9h10p9---7-----------9---7-----------|
D|--------------------------------|----^---9-----------------------|
A|--------------------------------|----^---------------------------|
E|---------------- is actually 9/7: (9 is a grace note ------------|
                                        before the beat)

E|--------------------------------|--------------------------------|
B|--------------------------------|--------------------------------|
G|--------------------------------|--------------------------------|
D|--------------7/9---7-------9---|--------9-------7---7---9-------|
A|--------------^-----------------|10/-11--------------------------|
E|--------  grace note  ----------|--------------------------------|
        (before the beat)

E|--------------------------------|--------------------------------|
B|--------------------------------|--------------------------------|
G|--------------------------------|--------------------6---7---8---|
D|6---6---9-------6-/-7---9-------|--------6---7---9---------------|
A|----------------------------9---|----9---------------------------|
E|--------------------------------|--------------------------------|


(Quasi PRE-CHORUS begins here)

   < - < - < - < - < - < - F R E E T I M E - > - > - > - > - > - >
E|--------------------------------|----------------2-------2-------|
B|--------------------------------|------------3-------------3-----|
G|------------------------4-------|--------4-------------------4---|
D|9---8---7---6---------------7---|6---5-------------------------5-|
A|----------------------------^---|^---^-------------------^-^-^-^-|
E|--------------------- easiest way is to fret ---------- use sweep
                     these three notes with your           picking
                  little finger and slide it along


E|0---------------5---0-----------|---------------------------7h9--|
B|----3-------------------3-p2----|-----------------------7/8------|
G|----------------------------2---|-------------------6------------|
D|--------------------------------|--------------------------------|
A|--------------------------------|--------------------------------|
E|--------------------------------|--------------------------------|


E|--------------------------------|--------------------------------|
B|10--------------10---7------7/6-|--------------------------------|
G|------------------------7-------|----7-------7-p-6---------------|
D|--------------------------------|--------8-----------8-----------|
A|--------------------------------|------------------------9-------|
E|--------------------------------|--------------------------------|


E|--------------------------------|--------------------------------|
B|--------------------------------|--------------------------------|
G|--------------------------------|------------9---6---------------|
D|7----9--------------------------|7---9-------------------7-------|
A|--------------------------------|----------------------------9---|
E|--------------------------------|--------------------------------|


E|--------------------------------|--------------------------------|
B|--------------------------------|------------------------7-------|
G|--------------------------------|----------------7-h-9-----------|
D|--------------------------------|--------7-h-9-------------------|
A|--------------------------------|----9---------------------------|
E|--------------------------------|--------------------------------|


E|5-h-7-------7-p-5-----------5---|--------------------------------|
B|--------7-----------7-p-5-------|7---h---5-----------------------|
G|--------------------------------|------------7---7---------------|
D|--------------------------------|--------------------------------|
A|--------------------------------|--------------------------------|
E|--------------------------------|--------------------------------|

  < - < - F R E E T I M E - > - >
E|--------------------------6h9---|----------------9-p-7-----------|
B|-------------------------7------|----------------------7-------0-|
G|--------------------3-6/7-------|------------------------7/6-----|
D|----------------4---------------|--------------------------------|
A|--------4-h-5-------------------|--------------------------------|
E|--------------------------------|--------------------------------|


E|--------------------------------|--------------------------------|
B|5--------b6r5---3---------------|--------------------------------|
G|----------------------6-------7---7/9-------6--------------------|
D|----------------------------------^------------------------------|
A|--------------------------- steady slide ------------------------|
E|-----------------------------------------------------------------|



CHORUS:  "Antigravity"

 - As before


OUTRO:

E|----------------|----------------|----------------|----------------|
B|----------------|----------------|----------------|----------------|
G|7-----------7---|x-------7-------|----7---7---7---|7---7---x---x---|
D|7-----------7---|x-------7-------|----7---7---7---|7---7---x---x---|
A|5-----------5---|x-------5-------|----5---5---5---|5---5---x---x---|
E|----------------|----------------|----------------|----------------|


E|----------------|----------------|----------------|----------------|
B|----------------|----------------|----------------|----------------|
G|----------------|----------------|----------------|----------------|
D|4-----------2---|--------4-------|12--------------|9---------------|
A|4-----------2---|--------4-------|12--------------|8---------------|
E|2-----------0---|--------2-------|10--------------|9---------------|


E|----------------|--------9-------|----------------|----------------|
B|----------------|--------7-------|----------------|----------------|
G|----------------|--------7-------|----------------|----------------|
D|----------------|--------7-------|----------------|----------------|
A|----------------|--------9-------|----------------|----------------|
E|----------------|--------7-------|----------------|----------------|


**********************************************************************

BASS TABS

(Is a 5-string on the record, tabbed for a 4-string - timing is included)


Guitar plays these two lines twice  (low E string)

E|7-h10---x---7---|x---x---5-h-7---|x---x---2---x---|2-h-5---x---x---|

E|7-h10---x---7---|x---x---5-h-7---|x---x---3---x---|3-h-5---x---x---|

then bass enters:

G|----------------|----------------|----------------|----------------|
D|----------------|----------------|----------------|----------------|
A|----------------|----------------|----------------|----------------|
E|7---------------|----------------|----------------|------------7---|


G|----------------|----------------|----------------|----------------|
D|----------------|----------------|----------------|----------------|
A|----------------|----------------|----------------|----------------|
E|7---------------|----------------|----------------|----------------|


G|----------------|----------------|----------------|----------------|
D|----------------|----------------|----------------|----------------|
A|----------------|----------------|----------------|----------------|
E|7-<<<-8va lower-|----------------|----------------|------------7---|


G|----------------|7-----------7---|----7-------7---|9---9---6-------|
D|------------9---|----9-----------|----------------|----------------|
A|----9-----------|----------------|----------------|----------------|
E|7---------------|----------------|----------------|----------------|


  Play this line 3 times
G|----------------|----------------|----------------|----------------|
D|----------------|----------------|----------------|----------------|
A|------------9---|----------------|----------------|----------------|
E|7---------------|--------5-------|--------5-------|----6-----------|


G|----------------|----------------|----------------|----------------|
D|----------------|----------------|----------------|----------------|
A|------------9---|----------------|--------7---7---|5---5---7---7---|
E|7---------------|--------5-------|----5-----------|----------------|


  Play this line 4 times
G|----------------|----------------|----------------|----------------|
D|----------------|----------------|----------------|----------------|
A|------------9---|----------------|----------------|----------------|
E|7---------------|--------5-------|--------5-------|----6-----------|


G|----------------|----------------|----------------|----------------|
D|----------------|----------------|----------------|----------------|
A|----------------|----------------|----------------|----------------|
E|7-<<<-8va lower-|----------------|----------------|----------------|


G|----------------|----------------|----------------|----------------|
D|----------------|----------------|----------------|----------------|
A|----------------|----------------|--------5--/--12|---------12--\--|
E|7---7-----------|----------------|----------------|----------------|



VERSE:  "I'm home alone tonight..."


  Play this line 7 times
G|----------------|----------------|----------------|----------------|
D|----------------|----------------|----------------|----------------|
A|------------9---|----------------|----------------|----------------|
E|7---------------|--------5-------|--------5-------|----6-----------|


G|----------------|----------------|----------------|----------------|
D|----------------|----------------|----------------|----------------|
A|------------9---|9---------------|7---------------|7---------------|
E|7---------------|--------5---5---|----5-------5---|----5-----------|


  Play this line 5 times
G|----------------|----------------|----------------|----------------|
D|----------------|----------------|----------------|----------------|
A|------------9---|----------------|----------------|----------------|
E|7---------------|--------5-------|--------5-------|----6-----------|


G|----------------|----------------|----------------|----------------|
D|----------------|----------------|----------------|----------------|
A|------------9---|9---------------|----------------|----------------|
E|7---------------|--------5-------|--------5-------|----6-----------|


G|----------------|----------------|----------------|----------------|
D|----------------|----------------|----------------|----------------|
A|------------9---|----------------|----------------|----------------|
E|7---------------|--------5-------|--------5-------|----6-----------|


G|----------------|----------------|----------------|----------------|
D|----------------|----------------|----------------|----------------|
A|------------9---|9---9-----------|----------------|----------------|
E|7---------------|--------5---5---|--------5-------|----6-----------|



PRE-CHORUS:  "When we get there..."

G|----------------|----------------|----------------|----------------|
D|----------------|----------------|9-------9---9---|--------7-------|
A|7-----------7---|--------7-------|----------------|----------------|
E|----------------|----------------|----------------|----------------|


G|----------------|----------------|----------------|----------------|
D|----------------|----------------|4-----------7---|--------4-------|
A|5-----------5---|--------5---5---|----------------|------------5---|
E|----------------|----------------|----------------|----------------|


G|----------------|----------------|----------------|----------------|
D|----------------|----------------|----------------|----------------|
A|----------------|----------------|----------------|----------------|
E|6-----------6---|--------6-------|--------6-------|6-----------6---|


G|----------------|----------------|----------------|----------------|
D|----------------|----------------|----------------|----------------|
A|----------------|----------------|10------10--10--|10--10--10------|
E|7-----------7---|--------7-------|----------------|----------------|


G|----------------|----------------|9---------------|9---------------|
D|----------------|------------9---|----9-------9---|----9-----------|
A|7-----------7---|--------7-------|--------7-------|--------7-------|
E|----------------|----------------|----------------|----------------|


G|----------------|----------------|----------------|----------------|
D|----------------|----------------|7-------7---4---|--------4-------|
A|5-----------5---|--------5---5---|----------------|------------5---|
E|----------------|----------------|----------------|----------------|


G|----------------|----------------|----------------|----------------|
D|----------------|----------------|----------------|----------------|
A|----------------|----------------|----------------|----------------|
E|6-----------6---|--------6-------|--------6-------|6-----------6---|


G|----------------|----------------|----------------|----------------|
D|----------------|----------------|----------------|----------------|
A|----------------|----------------|----------------|12--------\-----|
E|7-------7-------|7-------7-------|7-------7-------|----------------|



CHORUS:  "Antigravity..."

  Play this line 3 times
G|----------------|----------------|----------------|----------------|
D|----------------|----------------|----------------|----------------|
A|------------9---|----------------|----------------|----------------|
E|7---------------|--------5-------|--------5-------|----6-----------|


G|----------------|----------------|----------------|----------------|
D|----------------|----------------|----------------|----------------|
A|------------9---|----------------|--------7---7---|5---5---7---7---|
E|7---------------|--------5-------|----5-----------|----------------|


  Play this line 4 times
G|----------------|----------------|----------------|----------------|
D|----------------|----------------|----------------|----------------|
A|------------9---|----------------|----------------|----------------|
E|7---------------|--------5-------|--------5-------|----6-----------|



PRE-VERSE:

G|----------------|----------------|----------------|----------------|
D|----------------|----------------|----------------|----------------|
A|----------------|----------------|----------------|----------------|
E|3-----------3---|--------3-------|--------3-------|3-------3---x---|


G|----------------|----------------|----------------|----------------|
D|----------------|----------------|----------------|----------------|
A|----------------|----------------|----------------|----------------|
E|2-----------0---|--------2----/--|10--------------|9---------------|


G|----------------|----------------|----------------|----------------|
D|----------------|----------------|----------------|----------------|
A|----------------|----------------|----------------|12--------\-----|
E|7---7-------7---|----7---7-------|7---------------|----------------|



VERSE:  "For years I kept to myself..."

  Play seven times
G|----------------|----------------|----------------|----------------|
D|----------------|----------------|----------------|----------------|
A|------------9---|----------------|----------------|----------------|
E|7---------------|--------5-------|--------5-------|----6-----------|


G|----------------|----------------|----------------|----------------|
D|----------------|----------------|----------------|----------------|
A|------------9---|9---------------|7---------------|7---------------|
E|7---------------|--------5-------|----5-------5---|----5-----------|


  Play eight times
G|----------------|----------------|----------------|----------------|
D|----------------|----------------|----------------|----------------|
A|------------9---|----------------|----------------|----------------|
E|7---------------|--------5-------|--------5-------|----6-----------|



PRE-CHORUS:  "When we get there..."


G|----------------|----------------|----------------|----------------|
D|----------------|----------------|9-------9---9---|--------7-------|
A|7-----------7---|--------7-------|----------------|------------4---|
E|----------------|----------------|----------------|----------------|


G|----------------|----------------|----------------|----------------|
D|----------------|----------------|4-------4---7---|--------4-------|
A|5-----------5---|--------5---5---|----------------|------------5---|
E|----------------|----------------|----------------|----------------|


G|----------------|----------------|----------------|----------------|
D|----------------|----------------|----------------|----------------|
A|----------------|----------------|----------------|----------------|
E|6-----------6---|--------6-------|--------6-------|6-------6---6---|


G|----------------|----------------|----------------|----------------|
D|----------------|----------------|----------------|----------------|
A|----------------|----------------|10------10--10--|10--10--10------|
E|7-----------7---|--------7-------|----------------|----------------|


G|----------------|----------------|9---------------|9---------------|
D|----------------|------------9---|----9-------9---|----9-----------|
A|7-----------7---|--------7-------|--------7-------|--------7-------|
E|----------------|----------------|----------------|----------------|


G|----------------|----------------|----------------|----------------|
D|----------------|----------------|7-------7---4---|--------4-------|
A|5-----------5---|--------5---5---|----------------|------------5---|
E|----------------|----------------|----------------|----------------|


G|----------------|----------------|----------------|----------------|
D|----------------|----------------|----------------|----------------|
A|----------------|----------------|----------------|----------------|
E|6-----------6---|--------6-------|--------6-------|6-------6---6---|


G|----------------|----------------|----------------|----------------|
D|----------------|----------------|----------------|----------------|
A|----------------|----------------|----------------|12--------\-----|
E|7-------7-------|7-------7-------|7-------7-------|----------------|



CHORUS:  "Antigravity..."

  Play this line 3 times
G|----------------|----------------|----------------|----------------|
D|----------------|----------------|----------------|----------------|
A|------------9---|----------------|----------------|----------------|
E|7---------------|--------5-------|--------5-------|----6-----------|


G|----------------|----------------|----------------|----------------|
D|----------------|----------------|----------------|----------------|
A|------------9---|----------------|--------7---7---|5---5---7---7---|
E|7---------------|--------5-------|----5-----------|----------------|


  Play this line 4 times
G|----------------|----------------|----------------|----------------|
D|----------------|----------------|----------------|----------------|
A|------------9---|----------------|----------------|----------------|
E|7---------------|--------5-------|--------5-------|----6-----------|



INTERLUDE:

G|----------------|----------------|----------------|----------------|
D|----------------|----------------|----------------|----------------|
A|----------------|----------------|----------------|----------------|
E|3-----------3---|--------3-------|--------3-------|3-------3---3---|


G|----------------|----------------|----------------|----------------|
D|----------------|----------------|----------------|----------------|
A|----------------|----------------|----------------|----------------|
E|2-----------0---|--------2----/--|10--------------|9---------------|


 Play this line three times
G|----------------|----------------|----------------|----------------|
D|----------------|----------------|----------------|----------------|
A|----------------|----------------|----------------|----------------|
E|7---7-------7---|----7---7-------|7---------------|----------------|


G|----------------|----------------|----------------|----------------|
D|----------------|----------------|--------9---9---|9-------9-------|
A|----------------|----------------|----------------|------------9---|
E|7---7-------7---|----7---7-------|7---------------|----------------|


 Play this line three times
G|----------------|----------------|----------------|----------------|
D|----------------|----------------|----------------|----------------|
A|------------9---|9---------------|----------------|----------------|
E|7---------------|--------5-------|--------5-------|----6-----------|


G|----------------|----------------|----------------|----------------|
D|----------------|----------------|----------------|7---7---9-------|
A|------------9---|9---------------|7---7---10--10--|----------------|
E|7---------------|--------5-------|----------------|----------------|


 Play this line three times
G|----------------|----------------|----------------|----------------|
D|----------------|----------------|----------------|----------------|
A|------------9---|9---------------|----------------|----------------|
E|7---------------|--------5-------|--------5-------|----6-----------|


G|----------------|----------------|----------------|----------------|
D|----------------|----------------|----------------|----7-----------|
A|------------9---|9---------------|--------7-------|7-------7-------|
E|7---------------|--------5-------|----5-----------|----------------|


G|----------------|----------------|----------------|----------------|
D|----------------|----------------|9-------9---9---|--------7-------|
A|7-----------7---|--------7-------|----------------|------------4---|
E|----------------|----------------|----------------|----------------|


G|----------------|----------------|----------------|----------------|
D|----------------|----------------|4-------4---7---|--------4-------|
A|5-----------5---|--------5---5---|----------------|------------5---|
E|----------------|----------------|----------------|----------------|


G|----------------|----------------|----------------|----------------|
D|----------------|----------------|----------------|----------------|
A|----------------|----------------|----------------|----------------|
E|6-----------6---|--------6-------|--------6-------|6-------6---6---|


G|----------------|----------------|----------------|----------------|
D|----------------|----------------|----------------|----------------|
A|----------------|----------------|10------10--10--|9-------9---9---|
E|7-----------7---|--------7-------|----------------|----------------|


G|----------------|----------------|9---------------|9---------------|
D|----------------|------------9---|----9-------9---|----9-----------|
A|7-----------7---|--------7-------|--------7-------|--------7-------|
E|----------------|----------------|----------------|----------------|


G|----------------|----------------|----------------|----------------|
D|----------------|----------------|7-------7---4---|----------------|
A|5-----------5---|--------5-------|----------------|--------5---5---|
E|----------------|----------------|----------------|----------------|


G|----------------|----------------|----------------|----------------|
D|----------------|----------------|----------------|----------------|
A|----------------|----------------|----------------|----------------|
E|6-----------6---|--------6-------|--------6-------|6-------6---6---|


G|----------------|----------------|----------------|----------------|
D|----------------|----------------|----------------|----------------|
A|----------------|----------------|----------------|12--------\-----|
E|7---7-------7---|----7---7-------|7---------------|----------------|



CHORUS:  "Antigravity..."

  Play this line 3 times
G|----------------|----------------|----------------|----------------|
D|----------------|----------------|----------------|----------------|
A|------------9---|----------------|----------------|----------------|
E|7---------------|--------5-------|--------5-------|----6-----------|


G|----------------|----------------|----------------|----------------|
D|----------------|----------------|----------------|----------------|
A|------------9---|9---------------|--------5-------|----5-----------|
E|7---------------|--------5-------|----------------|----------------|


  Play this line 4 times
G|----------------|----------------|----------------|----------------|
D|----------------|----------------|----------------|----------------|
A|------------9---|----------------|----------------|----------------|
E|7---------------|--------5-------|--------5-------|----6-----------|



OUTRO:

G|----------------|----------------|----------------|----------------|
D|----------------|----------------|----------------|----------------|
A|----------------|----------------|----------------|----------------|
E|3---------------|----------------|----------------|----------------|


G|----------------|----------------|----------------|----------------|
D|----------------|----------------|----------------|----------------|
A|----------------|----------------|----------------|----------------|
E|2-----------0---|--------2----/--|10--------------|9---------------|


G|----------------|----------------|----------------|----------------|
D|----------------|----------------|----------------|----------------|
A|----------------|----------------|----------------|----------------|
E|----------------|--------7-------|----------------|----------------|





Comments


Popular Incubus tabs & chords
If Not Now When 1 Chords
11 A.M 1 Tabs
Agoraphobia 2 Tabs
Blood On The Ground Tabs
Love Hurts 3 Tabs
Megalomaniac 2 Tabs
Nice To Know You 1 Tabs
Pardon Me 1 Tabs
Smokin The Herb Again Tabs
Wish You Were Here 2 Tabs


Song lyrics



↑ Back to top | Tablatures and chords are parodies/interpretations of the original songs. You may use it for private study, scholarship, research or language learning purposes only
© 2014 AZChords.com Contact us | Privacy policy | DMCA | Add/correct tabs | Request tabs | Top 50 tabs