>
 >
Anna Molly 4

Anna Molly 4 Bass Tabs

Incubus - Anna Molly 4 chords, tabs, tablatures, lyrics

Guitar lessons | Add/correct | Request | Top 50 tabs Artists:  A B C D E F G H I J K L M N O P Q R S T U V W X Y Z 0-9

Anna Molly 4 Bass Tabs – Incubus

CD, Sheet music, Poster

Do you like Anna Molly 4? Share with your friends now
Bass TabsBass Tabs v2Bass Tabs v3Bass Tabs v4Bass Tabs v5Bass Tabs v6ChordsChords v2TabsTabs v2Ukulele
Incubus - Anna Molly
Bass Tab

I think it's a very good tab. Enjoy it... 
Viva la musica, viva Colombia!


INTRO

G|--------------------------------------|
D|--------------------------------------| 
A|----------6-------6h8-------6---------|
E|--6h8~------4~--------8~------4-1-3---|

G|--------------------------------------|
D|--------------------------------------|  
A|-----------------6-------------555----| 
E|---88888-6-33333---888-666-333--------|

G|--------------------------------------------|
D|-------------------------------555----------|  
A|-----------------6-----------------5\\\\----| 
E|---88888-6-33333---888-666-333--------------|


VERSE I
		
A cloud hangs over....
G|------------------------|		
D|------------------------| x3 
A|-----------3-6-5--------| 
E|--888-6h8--------33-----|

G|-----------------------------|
D|-----------------------------|  
A|-----------3-6-5---//10--6---| 
E|--888-6h8--------------------|


out there and sober...
G|------------------------|		
D|------------------------| x3 
A|-----------3-6-5--------| 
E|--888-6h8--------33-----|

G|-----------------------------|
D|-----------------------------|  
A|-----------3-6-5---//10--6---| 
E|--888-6h8--------------------|



CHORUS

I picture your face...
G|--------------------------------------|
D|--------------------------------------| 
A|----------6-----6666-------------6h8--|
E|--88-6h8----88~-------4-4444-44-------|


Anna Molly, Anna Molly...
G|----------------------------------------|
D|----------------------------------------| 
A|----------6-----6666--------------------|
E|--88-6h8----88~-------4-4444-44--1--3---|



INTRO

G|--------------------------------------|
D|--------------------------------------|  
A|-----------------6-------------555----| 
E|---88888-6-33333---888-666-333--------|



VERSE II
		
A cloud hangs over...
G|------------------------|		
D|------------------------| x3 
A|-----------3-6-5--------| 
E|--888-6h8--------33-----|

G|-----------------------------|
D|-----------------------------|  
A|-----------3-6-5---//10--6---| 
E|--888-6h8--------------------|


wish you were here...
G|------------------------|		
D|------------------------| x3 
A|-----------3-6-5--------| 
E|--888-6h8--------33-----|

G|-----------------------------|
D|-----------------------------|  
A|-----------3-6-5---//10--6---| 
E|--888-6h8--------------------|



CHORUS

I picture your face...
G|--------------------------------------|
D|--------------------------------------| 
A|----------6-----6666-------------6h8--|
E|--88-6h8----88~-------4-4444-44-------|


Anna Molly, Anna Molly...
G|----------------------------------------|
D|----------------------------------------| 
A|----------6-----6666--------------------|
E|--88-6h8----88~-------4-4444-44--1--3---|


I'll crawl to your name...
G|--------------------------------------|
D|--------------------------------------| 
A|----------6-----6666-------------6h8--|
E|--88-6h8----88~-------4-4444-44-------|


Anna Molly, Anna Molly...
G|----------------------------------------|
D|----------------------------------------| 
A|----------6-----6666--------------------|
E|--88-6h8----88~-------4-4444-44--1--3---|


BRIDGE

Wait there is a light...
G|-------8~--------|
D|--6~---8~--10~---| X4
A|--6~---6~--10~---|
E|--4~------8~-----|

G|------------------------------------------------|
D|------------------------------------------------| X3
A|-------6-66---------6-88--------6-66-----88~----|
E|-8-6h8--------8-6h8--------8-6h8-----4-6--------|




CHORUS

I'll crawl to your name...
G|--------------------------------------------------|
D|--------------------------------------------------| 
A|-double slide--------6-----6666--------------6h8--|
E|-////--////---88-6h8----88~-------4-4444-44-------|


Anna Molly, Anna Molly...
G|----------------------------------------|
D|----------------------------------------| 
A|----------6-----6666--------------------|
E|--88-6h8----88~-------4-4444-44--1--3---|


Wait there is a light...
G|--------------------------------------|
D|--------------------------------------| 
A|----------6-----6666-------------6h8--|
E|--88-6h8----88~-------4-4444-44-------|


fate or something better...
G|----------------------------------------|
D|----------------------------------------| 
A|----------6-----6666--------------------|
E|--88-6h8----88~-------4-4444-44--1--3---|



INTRO/END

G|--------------------------------------|
D|--------------------------------------|  
A|-----------------6-------------555----| 
E|---88888-6-33333---888-666-333--------|





Comments


Popular Incubus tabs & chords
Nebula Bass Tabs
Stellar 3 Bass Tabs
Make Yourself 2 Chords
Promises Promises 1 Chords
Admiration 1 Tabs
I Miss You (Acoustic) Tabs
Privilege Tabs
Privilege 3 Tabs
Summer Romance 4 Tabs
11 Am Ukulele


Song lyrics



↑ Back to top | Tablatures and chords are parodies/interpretations of the original songs. You may use it for private study, scholarship, research or language learning purposes only
© 2014 AZChords.com Contact us | Privacy policy | DMCA | Add/correct tabs | Request tabs | Top 50 tabs