>
 >
Anna Molly

Anna Molly Bass Tabs

Incubus - Anna Molly chords, tabs, tablatures, lyrics

Guitar lessons | Add/correct | Request | Top 50 tabs Artists:  A B C D E F G H I J K L M N O P Q R S T U V W X Y Z 0-9

Anna Molly Bass Tabs – Incubus

CD, Sheet music, Poster

Do you like Anna Molly? Share with your friends now
Bass TabsBass Tabs v2Bass Tabs v3Bass Tabs v4Bass Tabs v5Bass Tabs v6ChordsChords v2TabsTabs v2Ukulele

Tuning: Standard

p - pull off
h - hammer
/ - slide up
\ - slide down


Intro (Bass starts at 0:13)

G|------------------------------------|
D|--------1------1h3------1-----------|
A|--1h3~--------------3~--------------|
E|-----------4~--------------4--1--3--|


Preverse

G|-----------------------------|-----------------------------|
D|---------------------------1-|-----------------------1-1-1-|
A|--3-3-3-3-3--1---------------|--3-3-3--1-1-1---------------|
E|----------------3-3-3-3-3----|----------------3-3-3--------|

G|-----------------------------|----------------------------------------------|
D|---------------------------1-|----------------------------------------------|
A|--3-3-3-3-3--1---------------|--3-3-3--1-1-1--101010101010101010101010------|
E|----------------3-3-3-3-3----|-----------------------------------------10\--|
                                                      (10x12!)

Verse

G|----------------------------|
D|----------------------------|  x7
A|--3-3-3-3-1h3--3/6----------|
E|--------------------6--3-3--|

 8th time play this:
G|-------------------------------|
D|-------------------------------|
A|--3-3-3-3-1h3--3/6--3-/10------|
E|--------------------------10---|


Chorus

G||----------------------------------------------------|
D||.----------1-------1-1-1-----------------1h3-3-3-3--|
A||.-3-3--1-3----3-3--------3--------------------------|
E||---------------------------4-4-4-4-4-4-4------------|

G|------------------------------------------------------||
D|----------1-------1-1-1------------------------------.|| x2
A|-3-3--1-3----3-3--------3----------------------------.||
E|--------------------------4-4-4-4-4-4-4--1-1-1--3-3-3-||


Preverse

G|-----------------------------|----------------------------------------------|
D|---------------------------1-|----------------------------------------------|
A|--3-3-3-3-3--1---------------|--3-3-3--1-1-1--101010101010101010101010------|
E|----------------3-3-3-3-3----|-----------------------------------------10\--|


Verse

G||-----------------------------|
D||.----------------------------| x3
A||.--3-3-3-3-1h3--3/6----------|
E||--------------------6--3-3---|

 4th time play this:
G|------------------------------||
D|-----------------------------.|| x2 
A|--3-3-3-3-1h3--3/6--3-/10----.||
E|--------------------------10--||


Chorus

G||----------------------------------------------------|
D||.----------1-------1-1-1-----------------1h3-3-3-3--|
A||.-3-3--1-3----3-3--------3--------------------------|
E||---------------------------4-4-4-4-4-4-4------------|

G|------------------------------------------------------||
D|----------1-------1-1-1------------------------------.|| x2
A|-3-3--1-3----3-3--------3----------------------------.||
E|--------------------------4-4-4-4-4-4-4--1-1-1--3-3-3-||


Bridge

 Part 1
G|--------------|
D|--------------| x4
A|--------------|
E|--4~--1---3~--|

 Part 2
G|------------------------------------------------------|
D|-------1-1-1-1-------1-3-3-3-------1-1-1-1------3-3-3-| x3
A|--3--3----------3--3----------3--3------------1-------|
E|--------------------------------------------4---------|


 -Bass pause till 3:09-


Chorus

G|---------------------------------------------------|
D|----------1-------1-1-1-----------------1h3-3-3-3--|
A|-3-3--1-3----3-3--------3--------------------------|
E|--------------------------4-4-4-4-4-4-4------------|

G||-------------------------------------------------------||
D||.----------1-------1-1-1------------------------------.|| x3
A||.-3-3--1-3----3-3--------3----------------------------.||
E||---------------------------4-4-4-4-4-4-4--1-1-1--3-3-3-||


Outro

G|-----------------------------|--------------------------------------------------|
D|---------------------------1-|--------------------------------------------------|
A|--3-3-3-3-3--1---------------|--3-3-3--1-1-1--1010101010101010------------------|
E|----------------3-3-3-3-3----|---------------------------------1010101010101010-|
                                                    (10x8!)

Enjoy Incubus!





Comments


Popular Incubus tabs & chords
11am Bass Tabs
Are You In 2 Bass Tabs
Made For Tv Movie 2 Bass Tabs
Pardon Me 2 Bass Tabs
Thieves Intro Bass Tabs
Make Yourself Chords
Redefine Drum Tabs
Follow Tabs
I Wish You Were Here 1 Tabs
Summer Romance 1 Tabs


Song lyrics



↑ Back to top | Tablatures and chords are parodies/interpretations of the original songs. You may use it for private study, scholarship, research or language learning purposes only
© 2014 AZChords.com Contact us | Privacy policy | DMCA | Add/correct tabs | Request tabs | Top 50 tabs