» » »

Incubus, Anna Molly Tabs (ver.1)

Artists:  A B C D E F G H I J K L M N O P Q R S T U V W X Y Z # 

Anna Molly Tabs (ver.1)

Incubus Tabs
 Rating:
1.9/5 (76 votes)
Anna Molly lessons Tabs too difficult? Try these video lessons and learn fast
1
                Incubus 
Standard Tuning

Updated – 3.16.07


   Gtr I  (fast strumming pattern) 
 Intro/Chorus 
|--8----6----4------------------8---6----4----1----3-| 
|--8----8----4------------------8---8----4----1----3-| 
|--8----8----5---8/-10-10-10----8---8----5----1----4-| 
|-10----8----6---8/-10-10-10---10---8----6----3----3-| 
|-10----6----6---6/--8--8--8---10---6----6----3----5-| 
|--8---------4------------------8--------4----1----3-| 

  Gtr II  
   TP    TP TP    TP TP     TP TP 
|------------------------------------| 
|---8----11--8----11--8-----11--8----| 
|------------------------------------| 
|------------------------------------|2nd time 
|------------------------------------| 
|------------------------------------| 

 Prechorus                                     2x
|------------------------------------------------| 
|------------------------------------------------| 
|------------------------------------------------| 
|-13-13-13-13-13-x-x-12\-------------------------| 
|-15-15-15-15-15-x-x-13\--13-13-13-13-13-x-x-10\-| 
|-------------------------15-15-15-15-15-x-x-11\-|  

|-----------------------------------------------------| 
|-----------------------------------------------------| 
|-----------------------------------------------------| 
|-x-x-13-13-13-x-x-13-13-13---------------------------| 
|-x-x-15-15-15-x-x-13-13-13-x-x-13-13-13-x-x-10-10-10-| 
|---------------------------x-x-15-15-15-x-x-10-10-10-|  
 
Verse                                     
|--------------------------------------------| 
|----------------------15----15------------0-| 
|----------15-------------12----0-------17-0-| 
|----13-------13----12-----------------------| 
|-15----15-------13--------------------------| 
|---------------------------------16-16------| 

|--------------------------------------------| 
|----------------------15--15-----------15-0-| 
|----------15----------12--12-x-0----------0-| 
|----13-------13----12-----------------------| 
|-15----15-------13--------------------------| 
|---------------------------------15-15------| 

|--------------------------------------------| 
|----------------------15----15------------0-| 
|----------15-------------12----0-------17-0-| 
|----13-------13----12-----------------------| 
|-15----15-------13--------------------------| 
|---------------------------------16-16------| 

|--------------------------------------------| 
|----------------------15--15-----------15-0-| 
|----------15----------12--12-x-0----------0-| 
|----13-------13----12-----------------------| 
|-15----15-------13--------------------------| 
|---------------------------------15-15------| 
  
  
|--8----6----4------------------8---6----4----1----3-| 
|--8----8----4------------------8---8----4----1----3-| 
|--8----8----5---8/-10-10-10----8---8----5----1----4-| 
|-10----8----6---8/-10-10-10---10---8----6----3----3-| 
|-10----6----6---6/--8--8--8---10---6----6----3----5-| 
|--8---------4------------------8--------4----1----3-| 

|------------------------------------------------| 
|------------------------------------------------| 
|------------------------------------------------| 
|-13-13-13-13-13-x-x-12\-------------------------| 
|-15-15-15-15-15-x-x-13\--13-13-13-13-13-x-x-10\-| 
|-------------------------15-15-15-15-15-x-x-11\-|  

|--------------------------------------------------------| 
|--------------------------------------------------------| 
|--------------------------------------------------------| 
|-x-x-13-13-13-x-x-13-13-13------------------------------| 
|-x-x-15-15-15-x-x-13-13-13-x-x-13-13-13-13-x-x-10-10-10-| 
|---------------------------x-x-15-15-15-15-x-x-10-10-10-|  
          
Verse 2                                3x
|----------------------------------------|
|----------------------------------------|
|----------------------------------------|
|----------------------------------------|
|----------------------------------------|
|-x-8-8-8-6-8-x-8-8/10-8-6-x-3-x-3-------|

|-------------------------------------|
|-------------------------------------|
|-------------------------------------|
|-------------------------------------|
|----------------------------8/10-----|
|-x-8-8-8-6-8-x-8-8/10-8-6-x------10--|

|--------------------------------------------| 
|----------------------15----15------------0-| 
|----------15-------------12----0-------17-0-| 
|----13-------13----12-----------------------| 
|-15----15-------13--------------------------| 
|---------------------------------16-16------| 

|--------------------------------------------| 
|----------------------15--15-----------15-0-| 
|----------15----------12--12-x-0----------0-| 
|----13-------13----12-----------------------| 
|-15----15-------13--------------------------| 
|---------------------------------15-15------| 

 Bridge 
|----0--------0------0--------------------------------------| 
|----0--------0------0--------------------------------------| 
|----------------------------x-x-x-5--5b7-5--5b7r3h5--5b7-5~| 
|-----------------------------------------------------------| 
|-----------------------------------------------------------| 
|-4—-x/6\--3--x3-4---x/6\--3--------------------------------| 

 Breakdown 
|------------------------------------| 
|------------------------------10-10-| 
|------------------------------10-10-| 
|----------5-5-----------5-x-x-10-10-| 
|----------6-6-----------6-x-x-8--8--| 
|-8-6-6-8-------8-6-6-8--------------| 

|------------------------------| 
|---------------------9--9---9-| 
|--------------------10-10--10-| 
|----------5-5-------10-10--10-| 
|----------6-6--3/5---8--8---8-| 
|-8-6-6-8-------4/6------------| 

|------------------------------------| 
|------------------------------10-10-| 
|------------------------------10-10-| 
|----------5-5-----------5-x-x-10-10-| 
|----------6-6-----------6-x-x-8--8--| 
|-8-6-6-8-------8-6-6-8--------------| 

|---------------------1-1--1-| 
|---------------------1-1--1-| 
|---------------------1-1--1-| 
|----------5-5--------3-3--3-| 
|----------6-6--3/5---3-3--3-| 
|-8-6-6-8-------4/6---1-1--1-| 

|------------------------------------| 
|------------------------------10-10-| 
|------------------------------10-10-| 
|----------5-5-----------5-x-x-10-10-| 
|----------6-6-----------6-x-x-8--8--| 
|-8-6-6-8-------8-6-6-8--------------| 

|------------------------------| 
|---------------------9--9---9-| 
|--------------------10-10--10-| 
|----------5-5-------10-10--10-| 
|----------6-6--3/5---8--8---8-| 
|-8-6-6-8-------4/6------------| 

|--8----6----4------------------8---6----4----1----3-| 
|--8----8----4------------------8---8----4----1----3-| 
|--8----8----5---8/-10-10-10----8---8----5----1----4-| 
|-10----8----6---8/-10-10-10---10---8----6----3----3-| 
|-10----6----6---6/--8--8--8---10---6----6----3----5-| 
|--8---------4------------------8--------4----1----3-| 

|------------------------------------------------| 
|------------------------------------------------| 
|------------------------------------------------| 
|-13-13-13-13-13-x-x-12\-------------------------| 
|-15-15-15-15-15-x-x-13\--13-13-13-13-13-x-x-10\-| 
|-------------------------15-15-15-15-15-x-x-11\-|  

|-----------------------------------------------------| 
|-----------------------------------------------------| 
|-----------------------------------------------------| 
|-x-x-13-13-13-x-x-13-13-13---------------------------| 
|-x-x-15-15-15-x-x-13-13-13-x-x-13-13-13-x-x-10-10-10-| 
|---------------------------x-x-15-15-15-x-x-10-10-10-|  
            
Submit corrections

comments powered by Disqus
↑ Back to top | Incubus Tabs for Anna Molly. Lyrics for acoustic guitar and electric guitar. 1 Tablatures and chords are parodies/interpretations of the original songs. You may use it for private study, scholarship, research or language learning purposes only