>
 >
A Certain Shade Of Green 4

A Certain Shade Of Green 4 Guitar Tabs

Incubus - A Certain Shade Of Green 4 chords, tabs, tablatures, lyrics

Guitar lessons | Add/correct | Request | Top 50 tabs Artists:  A B C D E F G H I J K L M N O P Q R S T U V W X Y Z 0-9

A Certain Shade Of Green 4 Guitar Tabs – Incubus

CD, Sheet music, Poster

Do you like A Certain Shade Of Green 4? Share with your friends now
Bass TabsBass Tabs v2ChordsChords v2Drum TabsTabsTabs v2Tabs v4Ukulele
Band: Incubus

Standard Tuning: E A D G B e

Solo for the song A Certain Shade of Green from the album Monuments and Melodies (there 
a difference from the S.C.I.E.N.C.E. album).
no one has tabbed the solo of the song from this album.

**This is also my first tab, don't forget to comment and rate. The song is learned by 
and it is on D Major Scale**

Awesome song! Enjoy! :)

e|----------------------------------------5--7--|
B|-------------5---5pb--------------5--7--------|
G|---------4-7---7-----7-4---4-7-4--------------|
D|-----4-7-----------------7--------------------|
A|-5-7------------------------------------------|
E|----------------------------------------------|


e|-/12-12-----12----14-12----12-14pb-14-12-14-14-14-12-14-14-14-1514--|
B|--------15-----15-------15------------------------------------------|
G|--------------------------------------------------------------------|
D|--------------------------------------------------------------------|
A|--------------------------------------------------------------------|
E|--------------------------------------------------------------------|

e|-9~-------------|
B|-10~-let ring---|
G|-11~------------|
D|----------------|
A|----------------|
E|----------------|


************************************
| / slide up
| \ slide down
| ~ vibrato
| pb Pre-bend
************************************





Comments


Popular Incubus tabs & chords
Admiration Bass Tabs
I Miss You Bass Tabs
Make Yourself 2 Bass Tabs
The Warmth Bass Tabs
Are You In (Intro Ver 2) Tabs
Follow Tabs
Martini Tabs
Mexico 4 Tabs
Pardon Me 5 Tabs
Summer Romance 2 Tabs


Song lyrics



↑ Back to top | Tablatures and chords are parodies/interpretations of the original songs. You may use it for private study, scholarship, research or language learning purposes only
© 2014 AZChords.com Contact us | Privacy policy | DMCA | Add/correct tabs | Request tabs | Top 50 tabs